ISO-10303-21;
HEADER;
/* Generated by software containing ST-Developer
 * from STEP Tools, Inc. (www.steptools.com) 
 */
/* OPTION: using custom renumber hook */

FILE_DESCRIPTION(
/* description */ ('STEP AP203'),
/* implementation_level */ '2;1');

FILE_NAME(
/* name */ 'STF12B',
/* time_stamp */ '2022-08-19T10:11:32+02:00',
/* author */ ('License CC BY-ND 4.0'),
/* organization */ ('CADENAS'),
/* preprocessor_version */ 'ST-DEVELOPER v18.102',
/* originating_system */ 'PARTsolutions',
/* authorisation */ '  ');

FILE_SCHEMA (('CONFIG_CONTROL_DESIGN'));
ENDSEC;

DATA;
#10=PROPERTY_DEFINITION_REPRESENTATION(#14,#12);
#11=PROPERTY_DEFINITION_REPRESENTATION(#15,#13);
#12=REPRESENTATION('',(#16),#733);
#13=REPRESENTATION('',(#17),#733);
#14=PROPERTY_DEFINITION('pmi validation property','',#738);
#15=PROPERTY_DEFINITION('pmi validation property','',#738);
#16=VALUE_REPRESENTATION_ITEM('number of annotations',COUNT_MEASURE(0.));
#17=VALUE_REPRESENTATION_ITEM('number of views',COUNT_MEASURE(0.));
#18=SHAPE_REPRESENTATION_RELATIONSHIP('','',#419,#19);
#19=ADVANCED_BREP_SHAPE_REPRESENTATION('',(#417),#733);
#20=TOROIDAL_SURFACE('',#458,10.9,0.600000000000003);
#21=TOROIDAL_SURFACE('',#468,20.9,0.600000000000003);
#22=PLANE('',#424);
#23=PLANE('',#432);
#24=PLANE('',#436);
#25=PLANE('',#440);
#26=PLANE('',#444);
#27=PLANE('',#448);
#28=PLANE('',#452);
#29=PLANE('',#456);
#30=PLANE('',#462);
#31=PLANE('',#471);
#32=PLANE('',#476);
#33=PLANE('',#481);
#34=PLANE('',#486);
#35=ORIENTED_EDGE('',*,*,#107,.T.);
#36=ORIENTED_EDGE('',*,*,#108,.F.);
#37=ORIENTED_EDGE('',*,*,#109,.T.);
#38=ORIENTED_EDGE('',*,*,#110,.T.);
#39=ORIENTED_EDGE('',*,*,#111,.T.);
#40=ORIENTED_EDGE('',*,*,#112,.T.);
#41=ORIENTED_EDGE('',*,*,#113,.T.);
#42=ORIENTED_EDGE('',*,*,#107,.F.);
#43=ORIENTED_EDGE('',*,*,#114,.T.);
#44=ORIENTED_EDGE('',*,*,#109,.F.);
#45=ORIENTED_EDGE('',*,*,#115,.T.);
#46=ORIENTED_EDGE('',*,*,#114,.F.);
#47=ORIENTED_EDGE('',*,*,#116,.T.);
#48=ORIENTED_EDGE('',*,*,#115,.F.);
#49=ORIENTED_EDGE('',*,*,#117,.T.);
#50=ORIENTED_EDGE('',*,*,#116,.F.);
#51=ORIENTED_EDGE('',*,*,#118,.T.);
#52=ORIENTED_EDGE('',*,*,#117,.F.);
#53=ORIENTED_EDGE('',*,*,#119,.T.);
#54=ORIENTED_EDGE('',*,*,#118,.F.);
#55=ORIENTED_EDGE('',*,*,#120,.T.);
#56=ORIENTED_EDGE('',*,*,#119,.F.);
#57=ORIENTED_EDGE('',*,*,#121,.T.);
#58=ORIENTED_EDGE('',*,*,#120,.F.);
#59=ORIENTED_EDGE('',*,*,#122,.T.);
#60=ORIENTED_EDGE('',*,*,#121,.F.);
#61=ORIENTED_EDGE('',*,*,#123,.T.);
#62=ORIENTED_EDGE('',*,*,#122,.F.);
#63=ORIENTED_EDGE('',*,*,#124,.T.);
#64=ORIENTED_EDGE('',*,*,#123,.F.);
#65=ORIENTED_EDGE('',*,*,#125,.T.);
#66=ORIENTED_EDGE('',*,*,#124,.F.);
#67=ORIENTED_EDGE('',*,*,#126,.T.);
#68=ORIENTED_EDGE('',*,*,#125,.F.);
#69=ORIENTED_EDGE('',*,*,#127,.T.);
#70=ORIENTED_EDGE('',*,*,#126,.F.);
#71=ORIENTED_EDGE('',*,*,#128,.T.);
#72=ORIENTED_EDGE('',*,*,#127,.F.);
#73=ORIENTED_EDGE('',*,*,#129,.T.);
#74=ORIENTED_EDGE('',*,*,#128,.F.);
#75=ORIENTED_EDGE('',*,*,#130,.T.);
#76=ORIENTED_EDGE('',*,*,#131,.T.);
#77=ORIENTED_EDGE('',*,*,#132,.F.);
#78=ORIENTED_EDGE('',*,*,#133,.F.);
#79=ORIENTED_EDGE('',*,*,#134,.F.);
#80=ORIENTED_EDGE('',*,*,#129,.F.);
#81=ORIENTED_EDGE('',*,*,#108,.T.);
#82=ORIENTED_EDGE('',*,*,#130,.F.);
#83=ORIENTED_EDGE('',*,*,#135,.T.);
#84=ORIENTED_EDGE('',*,*,#110,.F.);
#85=ORIENTED_EDGE('',*,*,#136,.T.);
#86=ORIENTED_EDGE('',*,*,#135,.F.);
#87=ORIENTED_EDGE('',*,*,#131,.F.);
#88=ORIENTED_EDGE('',*,*,#136,.F.);
#89=ORIENTED_EDGE('',*,*,#137,.T.);
#90=ORIENTED_EDGE('',*,*,#113,.F.);
#91=ORIENTED_EDGE('',*,*,#138,.T.);
#92=ORIENTED_EDGE('',*,*,#137,.F.);
#93=ORIENTED_EDGE('',*,*,#134,.T.);
#94=ORIENTED_EDGE('',*,*,#138,.F.);
#95=ORIENTED_EDGE('',*,*,#139,.T.);
#96=ORIENTED_EDGE('',*,*,#112,.F.);
#97=ORIENTED_EDGE('',*,*,#140,.T.);
#98=ORIENTED_EDGE('',*,*,#139,.F.);
#99=ORIENTED_EDGE('',*,*,#133,.T.);
#100=ORIENTED_EDGE('',*,*,#140,.F.);
#101=ORIENTED_EDGE('',*,*,#141,.T.);
#102=ORIENTED_EDGE('',*,*,#111,.F.);
#103=ORIENTED_EDGE('',*,*,#142,.T.);
#104=ORIENTED_EDGE('',*,*,#141,.F.);
#105=ORIENTED_EDGE('',*,*,#132,.T.);
#106=ORIENTED_EDGE('',*,*,#142,.F.);
#107=EDGE_CURVE('',#143,#143,#179,.T.);
#108=EDGE_CURVE('',#144,#144,#180,.T.);
#109=EDGE_CURVE('',#145,#145,#181,.T.);
#110=EDGE_CURVE('',#146,#146,#182,.F.);
#111=EDGE_CURVE('',#147,#147,#183,.T.);
#112=EDGE_CURVE('',#148,#148,#184,.T.);
#113=EDGE_CURVE('',#149,#149,#185,.T.);
#114=EDGE_CURVE('',#150,#150,#186,.T.);
#115=EDGE_CURVE('',#151,#151,#187,.T.);
#116=EDGE_CURVE('',#152,#152,#188,.T.);
#117=EDGE_CURVE('',#153,#153,#189,.T.);
#118=EDGE_CURVE('',#154,#154,#190,.T.);
#119=EDGE_CURVE('',#155,#155,#191,.T.);
#120=EDGE_CURVE('',#156,#156,#192,.T.);
#121=EDGE_CURVE('',#157,#157,#193,.T.);
#122=EDGE_CURVE('',#158,#158,#194,.T.);
#123=EDGE_CURVE('',#159,#159,#195,.T.);
#124=EDGE_CURVE('',#160,#160,#196,.T.);
#125=EDGE_CURVE('',#161,#161,#197,.T.);
#126=EDGE_CURVE('',#162,#162,#198,.T.);
#127=EDGE_CURVE('',#163,#163,#199,.T.);
#128=EDGE_CURVE('',#164,#164,#200,.T.);
#129=EDGE_CURVE('',#165,#165,#201,.T.);
#130=EDGE_CURVE('',#166,#166,#202,.T.);
#131=EDGE_CURVE('',#167,#167,#203,.F.);
#132=EDGE_CURVE('',#168,#168,#204,.T.);
#133=EDGE_CURVE('',#169,#169,#205,.T.);
#134=EDGE_CURVE('',#170,#170,#206,.T.);
#135=EDGE_CURVE('',#171,#171,#207,.T.);
#136=EDGE_CURVE('',#172,#172,#208,.T.);
#137=EDGE_CURVE('',#173,#173,#209,.T.);
#138=EDGE_CURVE('',#174,#174,#210,.T.);
#139=EDGE_CURVE('',#175,#175,#211,.T.);
#140=EDGE_CURVE('',#176,#176,#212,.T.);
#141=EDGE_CURVE('',#177,#177,#213,.T.);
#142=EDGE_CURVE('',#178,#178,#214,.T.);
#143=VERTEX_POINT('',#630);
#144=VERTEX_POINT('',#632);
#145=VERTEX_POINT('',#635);
#146=VERTEX_POINT('',#637);
#147=VERTEX_POINT('',#639);
#148=VERTEX_POINT('',#641);
#149=VERTEX_POINT('',#643);
#150=VERTEX_POINT('',#646);
#151=VERTEX_POINT('',#649);
#152=VERTEX_POINT('',#652);
#153=VERTEX_POINT('',#655);
#154=VERTEX_POINT('',#658);
#155=VERTEX_POINT('',#661);
#156=VERTEX_POINT('',#664);
#157=VERTEX_POINT('',#667);
#158=VERTEX_POINT('',#670);
#159=VERTEX_POINT('',#673);
#160=VERTEX_POINT('',#676);
#161=VERTEX_POINT('',#679);
#162=VERTEX_POINT('',#682);
#163=VERTEX_POINT('',#685);
#164=VERTEX_POINT('',#688);
#165=VERTEX_POINT('',#691);
#166=VERTEX_POINT('',#694);
#167=VERTEX_POINT('',#696);
#168=VERTEX_POINT('',#698);
#169=VERTEX_POINT('',#700);
#170=VERTEX_POINT('',#702);
#171=VERTEX_POINT('',#706);
#172=VERTEX_POINT('',#709);
#173=VERTEX_POINT('',#713);
#174=VERTEX_POINT('',#716);
#175=VERTEX_POINT('',#720);
#176=VERTEX_POINT('',#723);
#177=VERTEX_POINT('',#727);
#178=VERTEX_POINT('',#730);
#179=CIRCLE('',#422,21.5);
#180=CIRCLE('',#423,21.5);
#181=CIRCLE('',#425,8.25);
#182=CIRCLE('',#426,3.75);
#183=CIRCLE('',#427,3.75);
#184=CIRCLE('',#428,3.75);
#185=CIRCLE('',#429,3.75);
#186=CIRCLE('',#431,8.25);
#187=CIRCLE('',#433,6.);
#188=CIRCLE('',#435,6.);
#189=CIRCLE('',#437,8.25);
#190=CIRCLE('',#439,8.25);
#191=CIRCLE('',#441,6.);
#192=CIRCLE('',#443,6.);
#193=CIRCLE('',#445,8.25);
#194=CIRCLE('',#447,8.25);
#195=CIRCLE('',#449,6.);
#196=CIRCLE('',#451,6.);
#197=CIRCLE('',#453,8.25);
#198=CIRCLE('',#455,8.25);
#199=CIRCLE('',#457,10.9);
#200=CIRCLE('',#459,11.5);
#201=CIRCLE('',#461,11.5000000000001);
#202=CIRCLE('',#463,20.9);
#203=CIRCLE('',#464,2.25);
#204=CIRCLE('',#465,2.25);
#205=CIRCLE('',#466,2.25);
#206=CIRCLE('',#467,2.25);
#207=CIRCLE('',#470,3.75);
#208=CIRCLE('',#472,2.25);
#209=CIRCLE('',#475,3.75);
#210=CIRCLE('',#477,2.25);
#211=CIRCLE('',#480,3.75);
#212=CIRCLE('',#482,2.25);
#213=CIRCLE('',#485,3.75);
#214=CIRCLE('',#487,2.25);
#215=EDGE_LOOP('',(#35));
#216=EDGE_LOOP('',(#36));
#217=EDGE_LOOP('',(#37));
#218=EDGE_LOOP('',(#38));
#219=EDGE_LOOP('',(#39));
#220=EDGE_LOOP('',(#40));
#221=EDGE_LOOP('',(#41));
#222=EDGE_LOOP('',(#42));
#223=EDGE_LOOP('',(#43));
#224=EDGE_LOOP('',(#44));
#225=EDGE_LOOP('',(#45));
#226=EDGE_LOOP('',(#46));
#227=EDGE_LOOP('',(#47));
#228=EDGE_LOOP('',(#48));
#229=EDGE_LOOP('',(#49));
#230=EDGE_LOOP('',(#50));
#231=EDGE_LOOP('',(#51));
#232=EDGE_LOOP('',(#52));
#233=EDGE_LOOP('',(#53));
#234=EDGE_LOOP('',(#54));
#235=EDGE_LOOP('',(#55));
#236=EDGE_LOOP('',(#56));
#237=EDGE_LOOP('',(#57));
#238=EDGE_LOOP('',(#58));
#239=EDGE_LOOP('',(#59));
#240=EDGE_LOOP('',(#60));
#241=EDGE_LOOP('',(#61));
#242=EDGE_LOOP('',(#62));
#243=EDGE_LOOP('',(#63));
#244=EDGE_LOOP('',(#64));
#245=EDGE_LOOP('',(#65));
#246=EDGE_LOOP('',(#66));
#247=EDGE_LOOP('',(#67));
#248=EDGE_LOOP('',(#68));
#249=EDGE_LOOP('',(#69));
#250=EDGE_LOOP('',(#70));
#251=EDGE_LOOP('',(#71));
#252=EDGE_LOOP('',(#72));
#253=EDGE_LOOP('',(#73));
#254=EDGE_LOOP('',(#74));
#255=EDGE_LOOP('',(#75));
#256=EDGE_LOOP('',(#76));
#257=EDGE_LOOP('',(#77));
#258=EDGE_LOOP('',(#78));
#259=EDGE_LOOP('',(#79));
#260=EDGE_LOOP('',(#80));
#261=EDGE_LOOP('',(#81));
#262=EDGE_LOOP('',(#82));
#263=EDGE_LOOP('',(#83));
#264=EDGE_LOOP('',(#84));
#265=EDGE_LOOP('',(#85));
#266=EDGE_LOOP('',(#86));
#267=EDGE_LOOP('',(#87));
#268=EDGE_LOOP('',(#88));
#269=EDGE_LOOP('',(#89));
#270=EDGE_LOOP('',(#90));
#271=EDGE_LOOP('',(#91));
#272=EDGE_LOOP('',(#92));
#273=EDGE_LOOP('',(#93));
#274=EDGE_LOOP('',(#94));
#275=EDGE_LOOP('',(#95));
#276=EDGE_LOOP('',(#96));
#277=EDGE_LOOP('',(#97));
#278=EDGE_LOOP('',(#98));
#279=EDGE_LOOP('',(#99));
#280=EDGE_LOOP('',(#100));
#281=EDGE_LOOP('',(#101));
#282=EDGE_LOOP('',(#102));
#283=EDGE_LOOP('',(#103));
#284=EDGE_LOOP('',(#104));
#285=EDGE_LOOP('',(#105));
#286=EDGE_LOOP('',(#106));
#287=FACE_BOUND('',#215,.T.);
#288=FACE_BOUND('',#216,.T.);
#289=FACE_BOUND('',#217,.T.);
#290=FACE_BOUND('',#218,.T.);
#291=FACE_BOUND('',#219,.T.);
#292=FACE_BOUND('',#220,.T.);
#293=FACE_BOUND('',#221,.T.);
#294=FACE_BOUND('',#222,.T.);
#295=FACE_BOUND('',#223,.T.);
#296=FACE_BOUND('',#224,.T.);
#297=FACE_BOUND('',#225,.T.);
#298=FACE_BOUND('',#226,.T.);
#299=FACE_BOUND('',#227,.T.);
#300=FACE_BOUND('',#228,.T.);
#301=FACE_BOUND('',#229,.T.);
#302=FACE_BOUND('',#230,.T.);
#303=FACE_BOUND('',#231,.T.);
#304=FACE_BOUND('',#232,.T.);
#305=FACE_BOUND('',#233,.T.);
#306=FACE_BOUND('',#234,.T.);
#307=FACE_BOUND('',#235,.T.);
#308=FACE_BOUND('',#236,.T.);
#309=FACE_BOUND('',#237,.T.);
#310=FACE_BOUND('',#238,.T.);
#311=FACE_BOUND('',#239,.T.);
#312=FACE_BOUND('',#240,.T.);
#313=FACE_BOUND('',#241,.T.);
#314=FACE_BOUND('',#242,.T.);
#315=FACE_BOUND('',#243,.T.);
#316=FACE_BOUND('',#244,.T.);
#317=FACE_BOUND('',#245,.T.);
#318=FACE_BOUND('',#246,.T.);
#319=FACE_BOUND('',#247,.T.);
#320=FACE_BOUND('',#248,.T.);
#321=FACE_BOUND('',#249,.T.);
#322=FACE_BOUND('',#250,.T.);
#323=FACE_BOUND('',#251,.T.);
#324=FACE_BOUND('',#252,.T.);
#325=FACE_BOUND('',#253,.T.);
#326=FACE_BOUND('',#254,.T.);
#327=FACE_BOUND('',#255,.T.);
#328=FACE_BOUND('',#256,.T.);
#329=FACE_BOUND('',#257,.T.);
#330=FACE_BOUND('',#258,.T.);
#331=FACE_BOUND('',#259,.T.);
#332=FACE_BOUND('',#260,.T.);
#333=FACE_BOUND('',#261,.T.);
#334=FACE_BOUND('',#262,.T.);
#335=FACE_BOUND('',#263,.T.);
#336=FACE_BOUND('',#264,.T.);
#337=FACE_BOUND('',#265,.T.);
#338=FACE_BOUND('',#266,.T.);
#339=FACE_BOUND('',#267,.T.);
#340=FACE_BOUND('',#268,.T.);
#341=FACE_BOUND('',#269,.T.);
#342=FACE_BOUND('',#270,.T.);
#343=FACE_BOUND('',#271,.T.);
#344=FACE_BOUND('',#272,.T.);
#345=FACE_BOUND('',#273,.T.);
#346=FACE_BOUND('',#274,.T.);
#347=FACE_BOUND('',#275,.T.);
#348=FACE_BOUND('',#276,.T.);
#349=FACE_BOUND('',#277,.T.);
#350=FACE_BOUND('',#278,.T.);
#351=FACE_BOUND('',#279,.T.);
#352=FACE_BOUND('',#280,.T.);
#353=FACE_BOUND('',#281,.T.);
#354=FACE_BOUND('',#282,.T.);
#355=FACE_BOUND('',#283,.T.);
#356=FACE_BOUND('',#284,.T.);
#357=FACE_BOUND('',#285,.T.);
#358=FACE_BOUND('',#286,.T.);
#359=CYLINDRICAL_SURFACE('',#421,21.5);
#360=CYLINDRICAL_SURFACE('',#430,8.25);
#361=CYLINDRICAL_SURFACE('',#434,6.);
#362=CYLINDRICAL_SURFACE('',#438,8.25);
#363=CYLINDRICAL_SURFACE('',#442,6.);
#364=CYLINDRICAL_SURFACE('',#446,8.25);
#365=CYLINDRICAL_SURFACE('',#450,6.);
#366=CYLINDRICAL_SURFACE('',#454,8.25);
#367=CYLINDRICAL_SURFACE('',#460,11.5);
#368=CYLINDRICAL_SURFACE('',#469,3.75);
#369=CYLINDRICAL_SURFACE('',#473,2.25);
#370=CYLINDRICAL_SURFACE('',#474,3.75);
#371=CYLINDRICAL_SURFACE('',#478,2.25);
#372=CYLINDRICAL_SURFACE('',#479,3.75);
#373=CYLINDRICAL_SURFACE('',#483,2.25);
#374=CYLINDRICAL_SURFACE('',#484,3.75);
#375=CYLINDRICAL_SURFACE('',#488,2.25);
#376=ADVANCED_FACE('',(#287,#288),#359,.T.);
#377=ADVANCED_FACE('',(#289,#290,#291,#292,#293,#294),#22,.T.);
#378=ADVANCED_FACE('',(#295,#296),#360,.F.);
#379=ADVANCED_FACE('',(#297,#298),#23,.T.);
#380=ADVANCED_FACE('',(#299,#300),#361,.F.);
#381=ADVANCED_FACE('',(#301,#302),#24,.T.);
#382=ADVANCED_FACE('',(#303,#304),#362,.F.);
#383=ADVANCED_FACE('',(#305,#306),#25,.T.);
#384=ADVANCED_FACE('',(#307,#308),#363,.F.);
#385=ADVANCED_FACE('',(#309,#310),#26,.T.);
#386=ADVANCED_FACE('',(#311,#312),#364,.F.);
#387=ADVANCED_FACE('',(#313,#314),#27,.T.);
#388=ADVANCED_FACE('',(#315,#316),#365,.F.);
#389=ADVANCED_FACE('',(#317,#318),#28,.T.);
#390=ADVANCED_FACE('',(#319,#320),#366,.F.);
#391=ADVANCED_FACE('',(#321,#322),#29,.T.);
#392=ADVANCED_FACE('',(#323,#324),#20,.T.);
#393=ADVANCED_FACE('',(#325,#326),#367,.T.);
#394=ADVANCED_FACE('',(#327,#328,#329,#330,#331,#332),#30,.T.);
#395=ADVANCED_FACE('',(#333,#334),#21,.T.);
#396=ADVANCED_FACE('',(#335,#336),#368,.F.);
#397=ADVANCED_FACE('',(#337,#338),#31,.T.);
#398=ADVANCED_FACE('',(#339,#340),#369,.F.);
#399=ADVANCED_FACE('',(#341,#342),#370,.F.);
#400=ADVANCED_FACE('',(#343,#344),#32,.T.);
#401=ADVANCED_FACE('',(#345,#346),#371,.F.);
#402=ADVANCED_FACE('',(#347,#348),#372,.F.);
#403=ADVANCED_FACE('',(#349,#350),#33,.T.);
#404=ADVANCED_FACE('',(#351,#352),#373,.F.);
#405=ADVANCED_FACE('',(#353,#354),#374,.F.);
#406=ADVANCED_FACE('',(#355,#356),#34,.T.);
#407=ADVANCED_FACE('',(#357,#358),#375,.F.);
#408=CLOSED_SHELL('',(#376,#377,#378,#379,#380,#381,#382,#383,#384,#385,
#386,#387,#388,#389,#390,#391,#392,#393,#394,#395,#396,#397,#398,#399,#400,
#401,#402,#403,#404,#405,#406,#407));
#409=STYLED_ITEM('',(#410),#417);
#410=PRESENTATION_STYLE_ASSIGNMENT((#411));
#411=SURFACE_STYLE_USAGE(.BOTH.,#412);
#412=SURFACE_SIDE_STYLE('',(#413));
#413=SURFACE_STYLE_FILL_AREA(#414);
#414=FILL_AREA_STYLE('',(#415));
#415=FILL_AREA_STYLE_COLOUR('',#416);
#416=COLOUR_RGB('',0.689999997615814,0.689999997615814,0.689999997615814);
#417=MANIFOLD_SOLID_BREP('STF12B',#408);
#418=SHAPE_DEFINITION_REPRESENTATION(#738,#419);
#419=SHAPE_REPRESENTATION('STF12B',(#420),#733);
#420=AXIS2_PLACEMENT_3D('',#627,#489,#490);
#421=AXIS2_PLACEMENT_3D('',#628,#491,#492);
#422=AXIS2_PLACEMENT_3D('',#629,#493,#494);
#423=AXIS2_PLACEMENT_3D('',#631,#495,#496);
#424=AXIS2_PLACEMENT_3D('',#633,#497,#498);
#425=AXIS2_PLACEMENT_3D('',#634,#499,#500);
#426=AXIS2_PLACEMENT_3D('',#636,#501,#502);
#427=AXIS2_PLACEMENT_3D('',#638,#503,#504);
#428=AXIS2_PLACEMENT_3D('',#640,#505,#506);
#429=AXIS2_PLACEMENT_3D('',#642,#507,#508);
#430=AXIS2_PLACEMENT_3D('',#644,#509,#510);
#431=AXIS2_PLACEMENT_3D('',#645,#511,#512);
#432=AXIS2_PLACEMENT_3D('',#647,#513,#514);
#433=AXIS2_PLACEMENT_3D('',#648,#515,#516);
#434=AXIS2_PLACEMENT_3D('',#650,#517,#518);
#435=AXIS2_PLACEMENT_3D('',#651,#519,#520);
#436=AXIS2_PLACEMENT_3D('',#653,#521,#522);
#437=AXIS2_PLACEMENT_3D('',#654,#523,#524);
#438=AXIS2_PLACEMENT_3D('',#656,#525,#526);
#439=AXIS2_PLACEMENT_3D('',#657,#527,#528);
#440=AXIS2_PLACEMENT_3D('',#659,#529,#530);
#441=AXIS2_PLACEMENT_3D('',#660,#531,#532);
#442=AXIS2_PLACEMENT_3D('',#662,#533,#534);
#443=AXIS2_PLACEMENT_3D('',#663,#535,#536);
#444=AXIS2_PLACEMENT_3D('',#665,#537,#538);
#445=AXIS2_PLACEMENT_3D('',#666,#539,#540);
#446=AXIS2_PLACEMENT_3D('',#668,#541,#542);
#447=AXIS2_PLACEMENT_3D('',#669,#543,#544);
#448=AXIS2_PLACEMENT_3D('',#671,#545,#546);
#449=AXIS2_PLACEMENT_3D('',#672,#547,#548);
#450=AXIS2_PLACEMENT_3D('',#674,#549,#550);
#451=AXIS2_PLACEMENT_3D('',#675,#551,#552);
#452=AXIS2_PLACEMENT_3D('',#677,#553,#554);
#453=AXIS2_PLACEMENT_3D('',#678,#555,#556);
#454=AXIS2_PLACEMENT_3D('',#680,#557,#558);
#455=AXIS2_PLACEMENT_3D('',#681,#559,#560);
#456=AXIS2_PLACEMENT_3D('',#683,#561,#562);
#457=AXIS2_PLACEMENT_3D('',#684,#563,#564);
#458=AXIS2_PLACEMENT_3D('',#686,#565,#566);
#459=AXIS2_PLACEMENT_3D('',#687,#567,#568);
#460=AXIS2_PLACEMENT_3D('',#689,#569,#570);
#461=AXIS2_PLACEMENT_3D('',#690,#571,#572);
#462=AXIS2_PLACEMENT_3D('',#692,#573,#574);
#463=AXIS2_PLACEMENT_3D('',#693,#575,#576);
#464=AXIS2_PLACEMENT_3D('',#695,#577,#578);
#465=AXIS2_PLACEMENT_3D('',#697,#579,#580);
#466=AXIS2_PLACEMENT_3D('',#699,#581,#582);
#467=AXIS2_PLACEMENT_3D('',#701,#583,#584);
#468=AXIS2_PLACEMENT_3D('',#703,#585,#586);
#469=AXIS2_PLACEMENT_3D('',#704,#587,#588);
#470=AXIS2_PLACEMENT_3D('',#705,#589,#590);
#471=AXIS2_PLACEMENT_3D('',#707,#591,#592);
#472=AXIS2_PLACEMENT_3D('',#708,#593,#594);
#473=AXIS2_PLACEMENT_3D('',#710,#595,#596);
#474=AXIS2_PLACEMENT_3D('',#711,#597,#598);
#475=AXIS2_PLACEMENT_3D('',#712,#599,#600);
#476=AXIS2_PLACEMENT_3D('',#714,#601,#602);
#477=AXIS2_PLACEMENT_3D('',#715,#603,#604);
#478=AXIS2_PLACEMENT_3D('',#717,#605,#606);
#479=AXIS2_PLACEMENT_3D('',#718,#607,#608);
#480=AXIS2_PLACEMENT_3D('',#719,#609,#610);
#481=AXIS2_PLACEMENT_3D('',#721,#611,#612);
#482=AXIS2_PLACEMENT_3D('',#722,#613,#614);
#483=AXIS2_PLACEMENT_3D('',#724,#615,#616);
#484=AXIS2_PLACEMENT_3D('',#725,#617,#618);
#485=AXIS2_PLACEMENT_3D('',#726,#619,#620);
#486=AXIS2_PLACEMENT_3D('',#728,#621,#622);
#487=AXIS2_PLACEMENT_3D('',#729,#623,#624);
#488=AXIS2_PLACEMENT_3D('',#731,#625,#626);
#489=DIRECTION('',(0.,0.,1.));
#490=DIRECTION('',(1.,0.,0.));
#491=DIRECTION('',(0.,0.,-1.));
#492=DIRECTION('',(-1.,0.,0.));
#493=DIRECTION('',(0.,0.,-1.));
#494=DIRECTION('',(-1.,0.,0.));
#495=DIRECTION('',(0.,0.,-1.));
#496=DIRECTION('',(-1.,0.,0.));
#497=DIRECTION('',(0.,0.,1.));
#498=DIRECTION('',(1.,0.,0.));
#499=DIRECTION('',(0.,0.,-1.));
#500=DIRECTION('',(-1.,0.,0.));
#501=DIRECTION('',(0.,0.,1.));
#502=DIRECTION('',(1.,0.,0.));
#503=DIRECTION('',(0.,0.,-1.));
#504=DIRECTION('',(-1.,0.,0.));
#505=DIRECTION('',(0.,0.,-1.));
#506=DIRECTION('',(-1.,0.,0.));
#507=DIRECTION('',(0.,0.,-1.));
#508=DIRECTION('',(-1.,0.,0.));
#509=DIRECTION('',(0.,0.,-1.));
#510=DIRECTION('',(-1.,0.,0.));
#511=DIRECTION('',(0.,0.,-1.));
#512=DIRECTION('',(-1.,0.,0.));
#513=DIRECTION('',(0.,0.,1.));
#514=DIRECTION('',(1.,0.,0.));
#515=DIRECTION('',(0.,0.,-1.));
#516=DIRECTION('',(-1.,0.,0.));
#517=DIRECTION('',(0.,0.,-1.));
#518=DIRECTION('',(-1.,0.,0.));
#519=DIRECTION('',(0.,0.,-1.));
#520=DIRECTION('',(-1.,0.,0.));
#521=DIRECTION('',(0.,0.,-1.));
#522=DIRECTION('',(-1.,0.,0.));
#523=DIRECTION('',(0.,0.,-1.));
#524=DIRECTION('',(-1.,0.,0.));
#525=DIRECTION('',(0.,0.,-1.));
#526=DIRECTION('',(-1.,0.,0.));
#527=DIRECTION('',(0.,0.,-1.));
#528=DIRECTION('',(-1.,0.,0.));
#529=DIRECTION('',(0.,0.,1.));
#530=DIRECTION('',(1.,0.,0.));
#531=DIRECTION('',(0.,0.,-1.));
#532=DIRECTION('',(-1.,0.,0.));
#533=DIRECTION('',(0.,0.,-1.));
#534=DIRECTION('',(-1.,0.,0.));
#535=DIRECTION('',(0.,0.,-1.));
#536=DIRECTION('',(-1.,0.,0.));
#537=DIRECTION('',(0.,0.,-1.));
#538=DIRECTION('',(-1.,0.,0.));
#539=DIRECTION('',(0.,0.,-1.));
#540=DIRECTION('',(-1.,0.,0.));
#541=DIRECTION('',(0.,0.,-1.));
#542=DIRECTION('',(-1.,0.,0.));
#543=DIRECTION('',(0.,0.,-1.));
#544=DIRECTION('',(-1.,0.,0.));
#545=DIRECTION('',(0.,0.,1.));
#546=DIRECTION('',(1.,0.,0.));
#547=DIRECTION('',(0.,0.,-1.));
#548=DIRECTION('',(-1.,0.,0.));
#549=DIRECTION('',(0.,0.,-1.));
#550=DIRECTION('',(-1.,0.,0.));
#551=DIRECTION('',(0.,0.,-1.));
#552=DIRECTION('',(-1.,0.,0.));
#553=DIRECTION('',(0.,0.,-1.));
#554=DIRECTION('',(-1.,0.,0.));
#555=DIRECTION('',(0.,0.,-1.));
#556=DIRECTION('',(-1.,0.,0.));
#557=DIRECTION('',(0.,0.,-1.));
#558=DIRECTION('',(-1.,0.,0.));
#559=DIRECTION('',(0.,0.,-1.));
#560=DIRECTION('',(-1.,0.,0.));
#561=DIRECTION('',(0.,0.,-1.));
#562=DIRECTION('',(-1.,0.,0.));
#563=DIRECTION('',(0.,0.,-1.));
#564=DIRECTION('',(-1.,0.,0.));
#565=DIRECTION('',(0.,0.,-1.));
#566=DIRECTION('',(-1.,0.,0.));
#567=DIRECTION('',(0.,0.,-1.));
#568=DIRECTION('',(-1.,0.,0.));
#569=DIRECTION('',(0.,0.,-1.));
#570=DIRECTION('',(-1.,0.,0.));
#571=DIRECTION('',(0.,0.,-1.));
#572=DIRECTION('',(-1.,0.,0.));
#573=DIRECTION('',(0.,0.,-1.));
#574=DIRECTION('',(-1.,0.,0.));
#575=DIRECTION('',(0.,0.,-1.));
#576=DIRECTION('',(-1.,0.,0.));
#577=DIRECTION('',(0.,0.,-1.));
#578=DIRECTION('',(-1.,0.,0.));
#579=DIRECTION('',(0.,0.,-1.));
#580=DIRECTION('',(-1.,0.,0.));
#581=DIRECTION('',(0.,0.,-1.));
#582=DIRECTION('',(-1.,0.,0.));
#583=DIRECTION('',(0.,0.,-1.));
#584=DIRECTION('',(-1.,0.,0.));
#585=DIRECTION('',(0.,0.,-1.));
#586=DIRECTION('',(-1.,0.,0.));
#587=DIRECTION('',(0.,0.,-1.));
#588=DIRECTION('',(-1.,0.,0.));
#589=DIRECTION('',(0.,0.,-1.));
#590=DIRECTION('',(-1.,0.,0.));
#591=DIRECTION('',(0.,0.,1.));
#592=DIRECTION('',(1.,0.,0.));
#593=DIRECTION('',(0.,0.,-1.));
#594=DIRECTION('',(-1.,0.,0.));
#595=DIRECTION('',(0.,0.,-1.));
#596=DIRECTION('',(-1.,0.,0.));
#597=DIRECTION('',(0.,0.,-1.));
#598=DIRECTION('',(-1.,0.,0.));
#599=DIRECTION('',(0.,0.,-1.));
#600=DIRECTION('',(-1.,0.,0.));
#601=DIRECTION('',(0.,0.,1.));
#602=DIRECTION('',(1.,0.,0.));
#603=DIRECTION('',(0.,0.,-1.));
#604=DIRECTION('',(-1.,0.,0.));
#605=DIRECTION('',(0.,0.,-1.));
#606=DIRECTION('',(-1.,0.,0.));
#607=DIRECTION('',(0.,0.,-1.));
#608=DIRECTION('',(-1.,0.,0.));
#609=DIRECTION('',(0.,0.,-1.));
#610=DIRECTION('',(-1.,0.,0.));
#611=DIRECTION('',(0.,0.,1.));
#612=DIRECTION('',(1.,0.,0.));
#613=DIRECTION('',(0.,0.,-1.));
#614=DIRECTION('',(-1.,0.,0.));
#615=DIRECTION('',(0.,0.,-1.));
#616=DIRECTION('',(-1.,0.,0.));
#617=DIRECTION('',(0.,0.,-1.));
#618=DIRECTION('',(-1.,0.,0.));
#619=DIRECTION('',(0.,0.,-1.));
#620=DIRECTION('',(-1.,0.,0.));
#621=DIRECTION('',(0.,0.,1.));
#622=DIRECTION('',(1.,0.,0.));
#623=DIRECTION('',(0.,0.,-1.));
#624=DIRECTION('',(-1.,0.,0.));
#625=DIRECTION('',(0.,0.,-1.));
#626=DIRECTION('',(-1.,0.,0.));
#627=CARTESIAN_POINT('',(0.,0.,0.));
#628=CARTESIAN_POINT('',(0.,0.,-500.));
#629=CARTESIAN_POINT('',(0.,0.,0.));
#630=CARTESIAN_POINT('',(-21.5,0.,0.));
#631=CARTESIAN_POINT('',(0.,0.,-5.40000000000002));
#632=CARTESIAN_POINT('',(-21.5,0.,-5.40000000000002));
#633=CARTESIAN_POINT('',(0.,21.5,0.));
#634=CARTESIAN_POINT('',(0.,0.,0.));
#635=CARTESIAN_POINT('',(-8.25,0.,0.));
#636=CARTESIAN_POINT('',(0.,16.5,0.));
#637=CARTESIAN_POINT('',(3.75,16.5,0.));
#638=CARTESIAN_POINT('',(-16.5,0.,0.));
#639=CARTESIAN_POINT('',(-20.25,0.,0.));
#640=CARTESIAN_POINT('',(0.,-16.5,0.));
#641=CARTESIAN_POINT('',(-3.75,-16.5,0.));
#642=CARTESIAN_POINT('',(16.5,0.,0.));
#643=CARTESIAN_POINT('',(12.75,0.,0.));
#644=CARTESIAN_POINT('',(0.,0.,-500.));
#645=CARTESIAN_POINT('',(0.,0.,-1.19999999999998));
#646=CARTESIAN_POINT('',(-8.25,0.,-1.19999999999998));
#647=CARTESIAN_POINT('',(0.,8.25,-1.2));
#648=CARTESIAN_POINT('',(0.,0.,-1.19999999999998));
#649=CARTESIAN_POINT('',(-6.,0.,-1.19999999999998));
#650=CARTESIAN_POINT('',(0.,0.,-500.));
#651=CARTESIAN_POINT('',(0.,0.,-1.90000000000001));
#652=CARTESIAN_POINT('',(-6.,0.,-1.90000000000001));
#653=CARTESIAN_POINT('',(0.,6.,-1.9));
#654=CARTESIAN_POINT('',(0.,0.,-1.90000000000001));
#655=CARTESIAN_POINT('',(-8.25,0.,-1.90000000000001));
#656=CARTESIAN_POINT('',(0.,0.,-500.));
#657=CARTESIAN_POINT('',(0.,0.,-4.24999999999998));
#658=CARTESIAN_POINT('',(-8.25,0.,-4.24999999999998));
#659=CARTESIAN_POINT('',(0.,8.25,-4.25));
#660=CARTESIAN_POINT('',(0.,0.,-4.24999999999998));
#661=CARTESIAN_POINT('',(-6.,0.,-4.24999999999998));
#662=CARTESIAN_POINT('',(0.,0.,-500.));
#663=CARTESIAN_POINT('',(0.,0.,-27.75));
#664=CARTESIAN_POINT('',(-6.,0.,-27.75));
#665=CARTESIAN_POINT('',(0.,6.,-27.75));
#666=CARTESIAN_POINT('',(0.,0.,-27.75));
#667=CARTESIAN_POINT('',(-8.25,0.,-27.75));
#668=CARTESIAN_POINT('',(0.,0.,-500.));
#669=CARTESIAN_POINT('',(0.,0.,-30.1));
#670=CARTESIAN_POINT('',(-8.25,0.,-30.1));
#671=CARTESIAN_POINT('',(0.,8.25,-30.1));
#672=CARTESIAN_POINT('',(0.,0.,-30.1));
#673=CARTESIAN_POINT('',(-6.,0.,-30.1));
#674=CARTESIAN_POINT('',(0.,0.,-500.));
#675=CARTESIAN_POINT('',(0.,0.,-30.8));
#676=CARTESIAN_POINT('',(-6.,0.,-30.8));
#677=CARTESIAN_POINT('',(0.,6.,-30.8));
#678=CARTESIAN_POINT('',(0.,0.,-30.8));
#679=CARTESIAN_POINT('',(-8.25,0.,-30.8));
#680=CARTESIAN_POINT('',(0.,0.,-500.));
#681=CARTESIAN_POINT('',(0.,0.,-32.));
#682=CARTESIAN_POINT('',(-8.25,0.,-32.));
#683=CARTESIAN_POINT('',(0.,8.25,-32.));
#684=CARTESIAN_POINT('',(0.,0.,-32.));
#685=CARTESIAN_POINT('',(-10.9,0.,-32.));
#686=CARTESIAN_POINT('',(0.,0.,-31.4));
#687=CARTESIAN_POINT('',(0.,0.,-31.4));
#688=CARTESIAN_POINT('',(-11.5,0.,-31.4));
#689=CARTESIAN_POINT('',(0.,0.,-500.));
#690=CARTESIAN_POINT('',(0.,0.,-6.00000000000001));
#691=CARTESIAN_POINT('',(-11.5000000000001,0.,-6.00000000000001));
#692=CARTESIAN_POINT('',(0.,11.5000000000001,-6.));
#693=CARTESIAN_POINT('',(0.,0.,-6.00000000000001));
#694=CARTESIAN_POINT('',(-20.9,0.,-6.00000000000001));
#695=CARTESIAN_POINT('',(0.,16.5,-6.00000000000001));
#696=CARTESIAN_POINT('',(-2.25,16.5,-6.00000000000001));
#697=CARTESIAN_POINT('',(-16.5,0.,-6.00000000000001));
#698=CARTESIAN_POINT('',(-18.75,0.,-6.00000000000001));
#699=CARTESIAN_POINT('',(0.,-16.5,-6.00000000000001));
#700=CARTESIAN_POINT('',(-2.25,-16.5,-6.00000000000001));
#701=CARTESIAN_POINT('',(16.5,0.,-6.00000000000001));
#702=CARTESIAN_POINT('',(14.25,0.,-6.00000000000001));
#703=CARTESIAN_POINT('',(0.,0.,-5.4));
#704=CARTESIAN_POINT('',(0.,16.5,-500.));
#705=CARTESIAN_POINT('',(0.,16.5,-4.09999999999999));
#706=CARTESIAN_POINT('',(-3.75,16.5,-4.09999999999999));
#707=CARTESIAN_POINT('',(0.,20.25,-4.09999999999997));
#708=CARTESIAN_POINT('',(0.,16.5,-4.09999999999999));
#709=CARTESIAN_POINT('',(-2.25,16.5,-4.09999999999999));
#710=CARTESIAN_POINT('',(0.,16.5,-500.));
#711=CARTESIAN_POINT('',(16.5,0.,-500.));
#712=CARTESIAN_POINT('',(16.5,0.,-4.09999999999999));
#713=CARTESIAN_POINT('',(12.75,0.,-4.09999999999999));
#714=CARTESIAN_POINT('',(16.5,3.75,-4.09999999999997));
#715=CARTESIAN_POINT('',(16.5,0.,-4.09999999999999));
#716=CARTESIAN_POINT('',(14.25,0.,-4.09999999999999));
#717=CARTESIAN_POINT('',(16.5,0.,-500.));
#718=CARTESIAN_POINT('',(0.,-16.5,-500.));
#719=CARTESIAN_POINT('',(0.,-16.5,-4.09999999999999));
#720=CARTESIAN_POINT('',(-3.75,-16.5,-4.09999999999999));
#721=CARTESIAN_POINT('',(0.,-12.75,-4.09999999999997));
#722=CARTESIAN_POINT('',(0.,-16.5,-4.09999999999999));
#723=CARTESIAN_POINT('',(-2.25,-16.5,-4.09999999999999));
#724=CARTESIAN_POINT('',(0.,-16.5,-500.));
#725=CARTESIAN_POINT('',(-16.5,0.,-500.));
#726=CARTESIAN_POINT('',(-16.5,0.,-4.09999999999999));
#727=CARTESIAN_POINT('',(-20.25,0.,-4.09999999999999));
#728=CARTESIAN_POINT('',(-16.5,3.75,-4.09999999999997));
#729=CARTESIAN_POINT('',(-16.5,0.,-4.09999999999999));
#730=CARTESIAN_POINT('',(-18.75,0.,-4.09999999999999));
#731=CARTESIAN_POINT('',(-16.5,0.,-500.));
#732=MECHANICAL_DESIGN_GEOMETRIC_PRESENTATION_REPRESENTATION('',(#409),
#733);
#733=(
GEOMETRIC_REPRESENTATION_CONTEXT(3)
GLOBAL_UNCERTAINTY_ASSIGNED_CONTEXT((#734))
GLOBAL_UNIT_ASSIGNED_CONTEXT((#737,#736,#735))
REPRESENTATION_CONTEXT('STF12B','TOP_LEVEL_ASSEMBLY_PART')
);
#734=UNCERTAINTY_MEASURE_WITH_UNIT(LENGTH_MEASURE(0.005),#737,
'DISTANCE_ACCURACY_VALUE','Maximum Tolerance applied to model');
#735=(
NAMED_UNIT(*)
SI_UNIT($,.STERADIAN.)
SOLID_ANGLE_UNIT()
);
#736=(
NAMED_UNIT(*)
PLANE_ANGLE_UNIT()
SI_UNIT($,.RADIAN.)
);
#737=(
LENGTH_UNIT()
NAMED_UNIT(*)
SI_UNIT(.MILLI.,.METRE.)
);
#738=PRODUCT_DEFINITION_SHAPE('','',#739);
#739=PRODUCT_DEFINITION('','',#741,#740);
#740=DESIGN_CONTEXT('',#747,'design');
#741=PRODUCT_DEFINITION_FORMATION_WITH_SPECIFIED_SOURCE('','',#743,
 .NOT_KNOWN.);
#742=PRODUCT_RELATED_PRODUCT_CATEGORY('','',(#743));
#743=PRODUCT('STF12B','STF12B','STF12B',(#745));
#744=PRODUCT_CATEGORY('','');
#745=MECHANICAL_CONTEXT('',#747,'mechanical');
#746=APPLICATION_PROTOCOL_DEFINITION('international standard',
'config_control_design',2010,#747);
#747=APPLICATION_CONTEXT(
'configuration controlled 3D designs of mechanical parts and assemblie
s');
ENDSEC;
END-ISO-10303-21;
