ISO-10303-21;
HEADER;
/* Generated by software containing ST-Developer
 * from STEP Tools, Inc. (www.steptools.com) 
 */
/* OPTION: using custom renumber hook */

FILE_DESCRIPTION(
/* description */ ('STEP AP203'),
/* implementation_level */ '2;1');

FILE_NAME(
/* name */ 'ST50',
/* time_stamp */ '2022-08-09T02:28:34+02:00',
/* author */ ('License CC BY-ND 4.0'),
/* organization */ ('CADENAS'),
/* preprocessor_version */ 'ST-DEVELOPER v18.102',
/* originating_system */ 'PARTsolutions',
/* authorisation */ '  ');

FILE_SCHEMA (('CONFIG_CONTROL_DESIGN'));
ENDSEC;

DATA;
#10=PROPERTY_DEFINITION_REPRESENTATION(#14,#12);
#11=PROPERTY_DEFINITION_REPRESENTATION(#15,#13);
#12=REPRESENTATION('',(#16),#653);
#13=REPRESENTATION('',(#17),#653);
#14=PROPERTY_DEFINITION('pmi validation property','',#658);
#15=PROPERTY_DEFINITION('pmi validation property','',#658);
#16=VALUE_REPRESENTATION_ITEM('number of annotations',COUNT_MEASURE(0.));
#17=VALUE_REPRESENTATION_ITEM('number of views',COUNT_MEASURE(0.));
#18=SHAPE_REPRESENTATION_RELATIONSHIP('','',#357,#19);
#19=ADVANCED_BREP_SHAPE_REPRESENTATION('',(#355),#653);
#20=B_SPLINE_CURVE_WITH_KNOTS('',3,(#547,#548,#549,#550,#551,#552,#553,
#554,#555,#556,#557),.UNSPECIFIED.,.T.,.F.,(1,1,1,1,1,1,1,1,1,1,1,1,1,1,
1),(-0.00293101453640646,-0.00195400969093764,-0.00097700484546882,0.,0.00097700484546882,
0.00195400969093764,0.00293101453640646,0.00390801938187528,0.0048850242273441,
0.00586202907281292,0.00683903391828174,0.00781603876375056,0.00879304360921938,
0.0097700484546882,0.010747053300157),.UNSPECIFIED.);
#21=B_SPLINE_CURVE_WITH_KNOTS('',3,(#571,#572,#573,#574,#575,#576,#577,
#578,#579,#580,#581),.UNSPECIFIED.,.T.,.F.,(1,1,1,1,1,1,1,1,1,1,1,1,1,1,
1),(-0.00293101453640646,-0.00195400969093764,-0.00097700484546882,0.,0.00097700484546882,
0.00195400969093764,0.00293101453640646,0.00390801938187528,0.0048850242273441,
0.00586202907281292,0.00683903391828174,0.00781603876375056,0.00879304360921938,
0.0097700484546882,0.010747053300157),.UNSPECIFIED.);
#22=B_SPLINE_CURVE_WITH_KNOTS('',3,(#610,#611,#612,#613,#614,#615,#616,
#617,#618,#619,#620),.UNSPECIFIED.,.T.,.F.,(1,1,1,1,1,1,1,1,1,1,1,1,1,1,
1),(-0.00293095389162043,-0.00195396926108029,-0.000976984630540145,0.,
0.000976984630540144,0.00195396926108029,0.00293095389162043,0.00390793852216058,
0.00488492315270072,0.00586190778324087,0.00683889241378101,0.00781587704432115,
0.0087928616748613,0.00976984630540144,0.0107468309359416),
 .UNSPECIFIED.);
#23=B_SPLINE_CURVE_WITH_KNOTS('',3,(#634,#635,#636,#637,#638,#639,#640,
#641,#642,#643,#644),.UNSPECIFIED.,.T.,.F.,(1,1,1,1,1,1,1,1,1,1,1,1,1,1,
1),(-0.00293095389162043,-0.00195396926108029,-0.000976984630540145,0.,
0.000976984630540144,0.00195396926108029,0.00293095389162043,0.00390793852216058,
0.00488492315270072,0.00586190778324087,0.00683889241378101,0.00781587704432115,
0.0087928616748613,0.00976984630540144,0.0107468309359416),
 .UNSPECIFIED.);
#24=CYLINDRICAL_SURFACE('',#364,31.15);
#25=CYLINDRICAL_SURFACE('',#368,25.);
#26=CYLINDRICAL_SURFACE('',#372,31.15);
#27=CYLINDRICAL_SURFACE('',#376,25.);
#28=CYLINDRICAL_SURFACE('',#380,31.15);
#29=CYLINDRICAL_SURFACE('',#384,25.);
#30=CYLINDRICAL_SURFACE('',#388,31.15);
#31=CYLINDRICAL_SURFACE('',#394,36.);
#32=CYLINDRICAL_SURFACE('',#398,35.);
#33=CYLINDRICAL_SURFACE('',#402,36.);
#34=CYLINDRICAL_SURFACE('',#406,35.);
#35=CYLINDRICAL_SURFACE('',#410,36.);
#36=CYLINDRICAL_SURFACE('',#411,1.25);
#37=CYLINDRICAL_SURFACE('',#412,1.25);
#38=PLANE('',#362);
#39=PLANE('',#366);
#40=PLANE('',#370);
#41=PLANE('',#374);
#42=PLANE('',#378);
#43=PLANE('',#382);
#44=PLANE('',#386);
#45=PLANE('',#390);
#46=PLANE('',#396);
#47=PLANE('',#400);
#48=PLANE('',#404);
#49=PLANE('',#408);
#50=ORIENTED_EDGE('',*,*,#110,.T.);
#51=ORIENTED_EDGE('',*,*,#111,.F.);
#52=ORIENTED_EDGE('',*,*,#112,.T.);
#53=ORIENTED_EDGE('',*,*,#110,.F.);
#54=ORIENTED_EDGE('',*,*,#113,.T.);
#55=ORIENTED_EDGE('',*,*,#112,.F.);
#56=ORIENTED_EDGE('',*,*,#114,.T.);
#57=ORIENTED_EDGE('',*,*,#113,.F.);
#58=ORIENTED_EDGE('',*,*,#115,.T.);
#59=ORIENTED_EDGE('',*,*,#114,.F.);
#60=ORIENTED_EDGE('',*,*,#116,.T.);
#61=ORIENTED_EDGE('',*,*,#115,.F.);
#62=ORIENTED_EDGE('',*,*,#117,.T.);
#63=ORIENTED_EDGE('',*,*,#118,.F.);
#64=ORIENTED_EDGE('',*,*,#116,.F.);
#65=ORIENTED_EDGE('',*,*,#119,.T.);
#66=ORIENTED_EDGE('',*,*,#117,.F.);
#67=ORIENTED_EDGE('',*,*,#120,.T.);
#68=ORIENTED_EDGE('',*,*,#119,.F.);
#69=ORIENTED_EDGE('',*,*,#121,.T.);
#70=ORIENTED_EDGE('',*,*,#120,.F.);
#71=ORIENTED_EDGE('',*,*,#122,.T.);
#72=ORIENTED_EDGE('',*,*,#123,.F.);
#73=ORIENTED_EDGE('',*,*,#121,.F.);
#74=ORIENTED_EDGE('',*,*,#124,.T.);
#75=ORIENTED_EDGE('',*,*,#122,.F.);
#76=ORIENTED_EDGE('',*,*,#125,.T.);
#77=ORIENTED_EDGE('',*,*,#124,.F.);
#78=ORIENTED_EDGE('',*,*,#126,.T.);
#79=ORIENTED_EDGE('',*,*,#125,.F.);
#80=ORIENTED_EDGE('',*,*,#127,.T.);
#81=ORIENTED_EDGE('',*,*,#126,.F.);
#82=ORIENTED_EDGE('',*,*,#128,.T.);
#83=ORIENTED_EDGE('',*,*,#127,.F.);
#84=ORIENTED_EDGE('',*,*,#129,.T.);
#85=ORIENTED_EDGE('',*,*,#128,.F.);
#86=ORIENTED_EDGE('',*,*,#130,.T.);
#87=ORIENTED_EDGE('',*,*,#129,.F.);
#88=ORIENTED_EDGE('',*,*,#131,.T.);
#89=ORIENTED_EDGE('',*,*,#130,.F.);
#90=ORIENTED_EDGE('',*,*,#132,.T.);
#91=ORIENTED_EDGE('',*,*,#133,.F.);
#92=ORIENTED_EDGE('',*,*,#131,.F.);
#93=ORIENTED_EDGE('',*,*,#134,.T.);
#94=ORIENTED_EDGE('',*,*,#132,.F.);
#95=ORIENTED_EDGE('',*,*,#135,.T.);
#96=ORIENTED_EDGE('',*,*,#134,.F.);
#97=ORIENTED_EDGE('',*,*,#136,.T.);
#98=ORIENTED_EDGE('',*,*,#135,.F.);
#99=ORIENTED_EDGE('',*,*,#137,.T.);
#100=ORIENTED_EDGE('',*,*,#138,.F.);
#101=ORIENTED_EDGE('',*,*,#136,.F.);
#102=ORIENTED_EDGE('',*,*,#139,.T.);
#103=ORIENTED_EDGE('',*,*,#137,.F.);
#104=ORIENTED_EDGE('',*,*,#111,.T.);
#105=ORIENTED_EDGE('',*,*,#139,.F.);
#106=ORIENTED_EDGE('',*,*,#118,.T.);
#107=ORIENTED_EDGE('',*,*,#138,.T.);
#108=ORIENTED_EDGE('',*,*,#123,.T.);
#109=ORIENTED_EDGE('',*,*,#133,.T.);
#110=EDGE_CURVE('',#140,#140,#170,.T.);
#111=EDGE_CURVE('',#141,#141,#171,.T.);
#112=EDGE_CURVE('',#142,#142,#172,.T.);
#113=EDGE_CURVE('',#143,#143,#173,.T.);
#114=EDGE_CURVE('',#144,#144,#174,.T.);
#115=EDGE_CURVE('',#145,#145,#175,.T.);
#116=EDGE_CURVE('',#146,#146,#176,.T.);
#117=EDGE_CURVE('',#147,#147,#177,.T.);
#118=EDGE_CURVE('',#148,#148,#20,.T.);
#119=EDGE_CURVE('',#149,#149,#178,.T.);
#120=EDGE_CURVE('',#150,#150,#179,.T.);
#121=EDGE_CURVE('',#151,#151,#180,.T.);
#122=EDGE_CURVE('',#152,#152,#181,.T.);
#123=EDGE_CURVE('',#153,#153,#21,.T.);
#124=EDGE_CURVE('',#154,#154,#182,.T.);
#125=EDGE_CURVE('',#155,#155,#183,.T.);
#126=EDGE_CURVE('',#156,#156,#184,.T.);
#127=EDGE_CURVE('',#157,#157,#185,.T.);
#128=EDGE_CURVE('',#158,#158,#186,.T.);
#129=EDGE_CURVE('',#159,#159,#187,.T.);
#130=EDGE_CURVE('',#160,#160,#188,.T.);
#131=EDGE_CURVE('',#161,#161,#189,.T.);
#132=EDGE_CURVE('',#162,#162,#190,.T.);
#133=EDGE_CURVE('',#163,#163,#22,.T.);
#134=EDGE_CURVE('',#164,#164,#191,.T.);
#135=EDGE_CURVE('',#165,#165,#192,.T.);
#136=EDGE_CURVE('',#166,#166,#193,.T.);
#137=EDGE_CURVE('',#167,#167,#194,.T.);
#138=EDGE_CURVE('',#168,#168,#23,.T.);
#139=EDGE_CURVE('',#169,#169,#195,.T.);
#140=VERTEX_POINT('',#526);
#141=VERTEX_POINT('',#528);
#142=VERTEX_POINT('',#531);
#143=VERTEX_POINT('',#534);
#144=VERTEX_POINT('',#537);
#145=VERTEX_POINT('',#540);
#146=VERTEX_POINT('',#543);
#147=VERTEX_POINT('',#546);
#148=VERTEX_POINT('',#558);
#149=VERTEX_POINT('',#561);
#150=VERTEX_POINT('',#564);
#151=VERTEX_POINT('',#567);
#152=VERTEX_POINT('',#570);
#153=VERTEX_POINT('',#582);
#154=VERTEX_POINT('',#585);
#155=VERTEX_POINT('',#588);
#156=VERTEX_POINT('',#591);
#157=VERTEX_POINT('',#594);
#158=VERTEX_POINT('',#597);
#159=VERTEX_POINT('',#600);
#160=VERTEX_POINT('',#603);
#161=VERTEX_POINT('',#606);
#162=VERTEX_POINT('',#609);
#163=VERTEX_POINT('',#621);
#164=VERTEX_POINT('',#624);
#165=VERTEX_POINT('',#627);
#166=VERTEX_POINT('',#630);
#167=VERTEX_POINT('',#633);
#168=VERTEX_POINT('',#645);
#169=VERTEX_POINT('',#648);
#170=CIRCLE('',#360,34.5);
#171=CIRCLE('',#361,36.);
#172=CIRCLE('',#363,31.15);
#173=CIRCLE('',#365,31.15);
#174=CIRCLE('',#367,25.);
#175=CIRCLE('',#369,25.);
#176=CIRCLE('',#371,31.15);
#177=CIRCLE('',#373,31.15);
#178=CIRCLE('',#375,25.);
#179=CIRCLE('',#377,25.);
#180=CIRCLE('',#379,31.15);
#181=CIRCLE('',#381,31.15);
#182=CIRCLE('',#383,25.);
#183=CIRCLE('',#385,25.);
#184=CIRCLE('',#387,31.15);
#185=CIRCLE('',#389,31.15);
#186=CIRCLE('',#391,34.5);
#187=CIRCLE('',#393,36.);
#188=CIRCLE('',#395,36.);
#189=CIRCLE('',#397,35.);
#190=CIRCLE('',#399,35.);
#191=CIRCLE('',#401,36.);
#192=CIRCLE('',#403,36.);
#193=CIRCLE('',#405,35.);
#194=CIRCLE('',#407,35.);
#195=CIRCLE('',#409,36.);
#196=EDGE_LOOP('',(#50));
#197=EDGE_LOOP('',(#51));
#198=EDGE_LOOP('',(#52));
#199=EDGE_LOOP('',(#53));
#200=EDGE_LOOP('',(#54));
#201=EDGE_LOOP('',(#55));
#202=EDGE_LOOP('',(#56));
#203=EDGE_LOOP('',(#57));
#204=EDGE_LOOP('',(#58));
#205=EDGE_LOOP('',(#59));
#206=EDGE_LOOP('',(#60));
#207=EDGE_LOOP('',(#61));
#208=EDGE_LOOP('',(#62));
#209=EDGE_LOOP('',(#63));
#210=EDGE_LOOP('',(#64));
#211=EDGE_LOOP('',(#65));
#212=EDGE_LOOP('',(#66));
#213=EDGE_LOOP('',(#67));
#214=EDGE_LOOP('',(#68));
#215=EDGE_LOOP('',(#69));
#216=EDGE_LOOP('',(#70));
#217=EDGE_LOOP('',(#71));
#218=EDGE_LOOP('',(#72));
#219=EDGE_LOOP('',(#73));
#220=EDGE_LOOP('',(#74));
#221=EDGE_LOOP('',(#75));
#222=EDGE_LOOP('',(#76));
#223=EDGE_LOOP('',(#77));
#224=EDGE_LOOP('',(#78));
#225=EDGE_LOOP('',(#79));
#226=EDGE_LOOP('',(#80));
#227=EDGE_LOOP('',(#81));
#228=EDGE_LOOP('',(#82));
#229=EDGE_LOOP('',(#83));
#230=EDGE_LOOP('',(#84));
#231=EDGE_LOOP('',(#85));
#232=EDGE_LOOP('',(#86));
#233=EDGE_LOOP('',(#87));
#234=EDGE_LOOP('',(#88));
#235=EDGE_LOOP('',(#89));
#236=EDGE_LOOP('',(#90));
#237=EDGE_LOOP('',(#91));
#238=EDGE_LOOP('',(#92));
#239=EDGE_LOOP('',(#93));
#240=EDGE_LOOP('',(#94));
#241=EDGE_LOOP('',(#95));
#242=EDGE_LOOP('',(#96));
#243=EDGE_LOOP('',(#97));
#244=EDGE_LOOP('',(#98));
#245=EDGE_LOOP('',(#99));
#246=EDGE_LOOP('',(#100));
#247=EDGE_LOOP('',(#101));
#248=EDGE_LOOP('',(#102));
#249=EDGE_LOOP('',(#103));
#250=EDGE_LOOP('',(#104));
#251=EDGE_LOOP('',(#105));
#252=EDGE_LOOP('',(#106));
#253=EDGE_LOOP('',(#107));
#254=EDGE_LOOP('',(#108));
#255=EDGE_LOOP('',(#109));
#256=FACE_BOUND('',#196,.T.);
#257=FACE_BOUND('',#197,.T.);
#258=FACE_BOUND('',#198,.T.);
#259=FACE_BOUND('',#199,.T.);
#260=FACE_BOUND('',#200,.T.);
#261=FACE_BOUND('',#201,.T.);
#262=FACE_BOUND('',#202,.T.);
#263=FACE_BOUND('',#203,.T.);
#264=FACE_BOUND('',#204,.T.);
#265=FACE_BOUND('',#205,.T.);
#266=FACE_BOUND('',#206,.T.);
#267=FACE_BOUND('',#207,.T.);
#268=FACE_BOUND('',#208,.T.);
#269=FACE_BOUND('',#209,.T.);
#270=FACE_BOUND('',#210,.T.);
#271=FACE_BOUND('',#211,.T.);
#272=FACE_BOUND('',#212,.T.);
#273=FACE_BOUND('',#213,.T.);
#274=FACE_BOUND('',#214,.T.);
#275=FACE_BOUND('',#215,.T.);
#276=FACE_BOUND('',#216,.T.);
#277=FACE_BOUND('',#217,.T.);
#278=FACE_BOUND('',#218,.T.);
#279=FACE_BOUND('',#219,.T.);
#280=FACE_BOUND('',#220,.T.);
#281=FACE_BOUND('',#221,.T.);
#282=FACE_BOUND('',#222,.T.);
#283=FACE_BOUND('',#223,.T.);
#284=FACE_BOUND('',#224,.T.);
#285=FACE_BOUND('',#225,.T.);
#286=FACE_BOUND('',#226,.T.);
#287=FACE_BOUND('',#227,.T.);
#288=FACE_BOUND('',#228,.T.);
#289=FACE_BOUND('',#229,.T.);
#290=FACE_BOUND('',#230,.T.);
#291=FACE_BOUND('',#231,.T.);
#292=FACE_BOUND('',#232,.T.);
#293=FACE_BOUND('',#233,.T.);
#294=FACE_BOUND('',#234,.T.);
#295=FACE_BOUND('',#235,.T.);
#296=FACE_BOUND('',#236,.T.);
#297=FACE_BOUND('',#237,.T.);
#298=FACE_BOUND('',#238,.T.);
#299=FACE_BOUND('',#239,.T.);
#300=FACE_BOUND('',#240,.T.);
#301=FACE_BOUND('',#241,.T.);
#302=FACE_BOUND('',#242,.T.);
#303=FACE_BOUND('',#243,.T.);
#304=FACE_BOUND('',#244,.T.);
#305=FACE_BOUND('',#245,.T.);
#306=FACE_BOUND('',#246,.T.);
#307=FACE_BOUND('',#247,.T.);
#308=FACE_BOUND('',#248,.T.);
#309=FACE_BOUND('',#249,.T.);
#310=FACE_BOUND('',#250,.T.);
#311=FACE_BOUND('',#251,.T.);
#312=FACE_BOUND('',#252,.T.);
#313=FACE_BOUND('',#253,.T.);
#314=FACE_BOUND('',#254,.T.);
#315=FACE_BOUND('',#255,.T.);
#316=TOROIDAL_SURFACE('',#359,34.5,1.50000000000001);
#317=TOROIDAL_SURFACE('',#392,34.5,1.5);
#318=ADVANCED_FACE('',(#256,#257),#316,.T.);
#319=ADVANCED_FACE('',(#258,#259),#38,.T.);
#320=ADVANCED_FACE('',(#260,#261),#24,.F.);
#321=ADVANCED_FACE('',(#262,#263),#39,.T.);
#322=ADVANCED_FACE('',(#264,#265),#25,.F.);
#323=ADVANCED_FACE('',(#266,#267),#40,.T.);
#324=ADVANCED_FACE('',(#268,#269,#270),#26,.F.);
#325=ADVANCED_FACE('',(#271,#272),#41,.T.);
#326=ADVANCED_FACE('',(#273,#274),#27,.F.);
#327=ADVANCED_FACE('',(#275,#276),#42,.T.);
#328=ADVANCED_FACE('',(#277,#278,#279),#28,.F.);
#329=ADVANCED_FACE('',(#280,#281),#43,.T.);
#330=ADVANCED_FACE('',(#282,#283),#29,.F.);
#331=ADVANCED_FACE('',(#284,#285),#44,.T.);
#332=ADVANCED_FACE('',(#286,#287),#30,.F.);
#333=ADVANCED_FACE('',(#288,#289),#45,.T.);
#334=ADVANCED_FACE('',(#290,#291),#317,.T.);
#335=ADVANCED_FACE('',(#292,#293),#31,.T.);
#336=ADVANCED_FACE('',(#294,#295),#46,.T.);
#337=ADVANCED_FACE('',(#296,#297,#298),#32,.T.);
#338=ADVANCED_FACE('',(#299,#300),#47,.T.);
#339=ADVANCED_FACE('',(#301,#302),#33,.T.);
#340=ADVANCED_FACE('',(#303,#304),#48,.T.);
#341=ADVANCED_FACE('',(#305,#306,#307),#34,.T.);
#342=ADVANCED_FACE('',(#308,#309),#49,.T.);
#343=ADVANCED_FACE('',(#310,#311),#35,.T.);
#344=ADVANCED_FACE('',(#312,#313),#36,.F.);
#345=ADVANCED_FACE('',(#314,#315),#37,.F.);
#346=CLOSED_SHELL('',(#318,#319,#320,#321,#322,#323,#324,#325,#326,#327,
#328,#329,#330,#331,#332,#333,#334,#335,#336,#337,#338,#339,#340,#341,#342,
#343,#344,#345));
#347=STYLED_ITEM('',(#348),#355);
#348=PRESENTATION_STYLE_ASSIGNMENT((#349));
#349=SURFACE_STYLE_USAGE(.BOTH.,#350);
#350=SURFACE_SIDE_STYLE('',(#351));
#351=SURFACE_STYLE_FILL_AREA(#352);
#352=FILL_AREA_STYLE('',(#353));
#353=FILL_AREA_STYLE_COLOUR('',#354);
#354=COLOUR_RGB('',0.689999997615814,0.689999997615814,0.689999997615814);
#355=MANIFOLD_SOLID_BREP('ST50',#346);
#356=SHAPE_DEFINITION_REPRESENTATION(#658,#357);
#357=SHAPE_REPRESENTATION('ST50',(#358),#653);
#358=AXIS2_PLACEMENT_3D('',#523,#413,#414);
#359=AXIS2_PLACEMENT_3D('',#524,#415,#416);
#360=AXIS2_PLACEMENT_3D('',#525,#417,#418);
#361=AXIS2_PLACEMENT_3D('',#527,#419,#420);
#362=AXIS2_PLACEMENT_3D('',#529,#421,#422);
#363=AXIS2_PLACEMENT_3D('',#530,#423,#424);
#364=AXIS2_PLACEMENT_3D('',#532,#425,#426);
#365=AXIS2_PLACEMENT_3D('',#533,#427,#428);
#366=AXIS2_PLACEMENT_3D('',#535,#429,#430);
#367=AXIS2_PLACEMENT_3D('',#536,#431,#432);
#368=AXIS2_PLACEMENT_3D('',#538,#433,#434);
#369=AXIS2_PLACEMENT_3D('',#539,#435,#436);
#370=AXIS2_PLACEMENT_3D('',#541,#437,#438);
#371=AXIS2_PLACEMENT_3D('',#542,#439,#440);
#372=AXIS2_PLACEMENT_3D('',#544,#441,#442);
#373=AXIS2_PLACEMENT_3D('',#545,#443,#444);
#374=AXIS2_PLACEMENT_3D('',#559,#445,#446);
#375=AXIS2_PLACEMENT_3D('',#560,#447,#448);
#376=AXIS2_PLACEMENT_3D('',#562,#449,#450);
#377=AXIS2_PLACEMENT_3D('',#563,#451,#452);
#378=AXIS2_PLACEMENT_3D('',#565,#453,#454);
#379=AXIS2_PLACEMENT_3D('',#566,#455,#456);
#380=AXIS2_PLACEMENT_3D('',#568,#457,#458);
#381=AXIS2_PLACEMENT_3D('',#569,#459,#460);
#382=AXIS2_PLACEMENT_3D('',#583,#461,#462);
#383=AXIS2_PLACEMENT_3D('',#584,#463,#464);
#384=AXIS2_PLACEMENT_3D('',#586,#465,#466);
#385=AXIS2_PLACEMENT_3D('',#587,#467,#468);
#386=AXIS2_PLACEMENT_3D('',#589,#469,#470);
#387=AXIS2_PLACEMENT_3D('',#590,#471,#472);
#388=AXIS2_PLACEMENT_3D('',#592,#473,#474);
#389=AXIS2_PLACEMENT_3D('',#593,#475,#476);
#390=AXIS2_PLACEMENT_3D('',#595,#477,#478);
#391=AXIS2_PLACEMENT_3D('',#596,#479,#480);
#392=AXIS2_PLACEMENT_3D('',#598,#481,#482);
#393=AXIS2_PLACEMENT_3D('',#599,#483,#484);
#394=AXIS2_PLACEMENT_3D('',#601,#485,#486);
#395=AXIS2_PLACEMENT_3D('',#602,#487,#488);
#396=AXIS2_PLACEMENT_3D('',#604,#489,#490);
#397=AXIS2_PLACEMENT_3D('',#605,#491,#492);
#398=AXIS2_PLACEMENT_3D('',#607,#493,#494);
#399=AXIS2_PLACEMENT_3D('',#608,#495,#496);
#400=AXIS2_PLACEMENT_3D('',#622,#497,#498);
#401=AXIS2_PLACEMENT_3D('',#623,#499,#500);
#402=AXIS2_PLACEMENT_3D('',#625,#501,#502);
#403=AXIS2_PLACEMENT_3D('',#626,#503,#504);
#404=AXIS2_PLACEMENT_3D('',#628,#505,#506);
#405=AXIS2_PLACEMENT_3D('',#629,#507,#508);
#406=AXIS2_PLACEMENT_3D('',#631,#509,#510);
#407=AXIS2_PLACEMENT_3D('',#632,#511,#512);
#408=AXIS2_PLACEMENT_3D('',#646,#513,#514);
#409=AXIS2_PLACEMENT_3D('',#647,#515,#516);
#410=AXIS2_PLACEMENT_3D('',#649,#517,#518);
#411=AXIS2_PLACEMENT_3D('',#650,#519,#520);
#412=AXIS2_PLACEMENT_3D('',#651,#521,#522);
#413=DIRECTION('',(0.,0.,1.));
#414=DIRECTION('',(1.,0.,0.));
#415=DIRECTION('',(0.,0.,-1.));
#416=DIRECTION('',(-1.,0.,0.));
#417=DIRECTION('',(0.,0.,-1.));
#418=DIRECTION('',(-1.,0.,0.));
#419=DIRECTION('',(0.,0.,-1.));
#420=DIRECTION('',(-1.,0.,0.));
#421=DIRECTION('',(0.,0.,1.));
#422=DIRECTION('',(1.,0.,0.));
#423=DIRECTION('',(0.,0.,-1.));
#424=DIRECTION('',(-1.,0.,0.));
#425=DIRECTION('',(0.,0.,-1.));
#426=DIRECTION('',(-1.,0.,0.));
#427=DIRECTION('',(0.,0.,-1.));
#428=DIRECTION('',(-1.,0.,0.));
#429=DIRECTION('',(0.,0.,1.));
#430=DIRECTION('',(1.,0.,0.));
#431=DIRECTION('',(0.,0.,-1.));
#432=DIRECTION('',(-1.,0.,0.));
#433=DIRECTION('',(0.,0.,-1.));
#434=DIRECTION('',(-1.,0.,0.));
#435=DIRECTION('',(0.,0.,-1.));
#436=DIRECTION('',(-1.,0.,0.));
#437=DIRECTION('',(0.,0.,-1.));
#438=DIRECTION('',(-1.,0.,0.));
#439=DIRECTION('',(0.,0.,-1.));
#440=DIRECTION('',(-1.,0.,0.));
#441=DIRECTION('',(0.,0.,-1.));
#442=DIRECTION('',(-1.,0.,0.));
#443=DIRECTION('',(0.,0.,-1.));
#444=DIRECTION('',(-1.,0.,0.));
#445=DIRECTION('',(0.,0.,1.));
#446=DIRECTION('',(1.,0.,0.));
#447=DIRECTION('',(0.,0.,-1.));
#448=DIRECTION('',(-1.,0.,0.));
#449=DIRECTION('',(0.,0.,-1.));
#450=DIRECTION('',(-1.,0.,0.));
#451=DIRECTION('',(0.,0.,-1.));
#452=DIRECTION('',(-1.,0.,0.));
#453=DIRECTION('',(0.,0.,-1.));
#454=DIRECTION('',(-1.,0.,0.));
#455=DIRECTION('',(0.,0.,-1.));
#456=DIRECTION('',(-1.,0.,0.));
#457=DIRECTION('',(0.,0.,-1.));
#458=DIRECTION('',(-1.,0.,0.));
#459=DIRECTION('',(0.,0.,-1.));
#460=DIRECTION('',(-1.,0.,0.));
#461=DIRECTION('',(0.,0.,1.));
#462=DIRECTION('',(1.,0.,0.));
#463=DIRECTION('',(0.,0.,-1.));
#464=DIRECTION('',(-1.,0.,0.));
#465=DIRECTION('',(0.,0.,-1.));
#466=DIRECTION('',(-1.,0.,0.));
#467=DIRECTION('',(0.,0.,-1.));
#468=DIRECTION('',(-1.,0.,0.));
#469=DIRECTION('',(0.,0.,-1.));
#470=DIRECTION('',(-1.,0.,0.));
#471=DIRECTION('',(0.,0.,-1.));
#472=DIRECTION('',(-1.,0.,0.));
#473=DIRECTION('',(0.,0.,-1.));
#474=DIRECTION('',(-1.,0.,0.));
#475=DIRECTION('',(0.,0.,-1.));
#476=DIRECTION('',(-1.,0.,0.));
#477=DIRECTION('',(0.,0.,-1.));
#478=DIRECTION('',(-1.,0.,0.));
#479=DIRECTION('',(0.,0.,-1.));
#480=DIRECTION('',(-1.,0.,0.));
#481=DIRECTION('',(0.,0.,-1.));
#482=DIRECTION('',(-1.,0.,0.));
#483=DIRECTION('',(0.,0.,-1.));
#484=DIRECTION('',(-1.,0.,0.));
#485=DIRECTION('',(0.,0.,-1.));
#486=DIRECTION('',(-1.,0.,0.));
#487=DIRECTION('',(0.,0.,-1.));
#488=DIRECTION('',(-1.,0.,0.));
#489=DIRECTION('',(0.,0.,1.));
#490=DIRECTION('',(1.,0.,0.));
#491=DIRECTION('',(0.,0.,-1.));
#492=DIRECTION('',(-1.,0.,0.));
#493=DIRECTION('',(0.,0.,-1.));
#494=DIRECTION('',(-1.,0.,0.));
#495=DIRECTION('',(0.,0.,-1.));
#496=DIRECTION('',(-1.,0.,0.));
#497=DIRECTION('',(0.,0.,-1.));
#498=DIRECTION('',(-1.,0.,0.));
#499=DIRECTION('',(0.,0.,-1.));
#500=DIRECTION('',(-1.,0.,0.));
#501=DIRECTION('',(0.,0.,-1.));
#502=DIRECTION('',(-1.,0.,0.));
#503=DIRECTION('',(0.,0.,-1.));
#504=DIRECTION('',(-1.,0.,0.));
#505=DIRECTION('',(0.,0.,1.));
#506=DIRECTION('',(1.,0.,0.));
#507=DIRECTION('',(0.,0.,-1.));
#508=DIRECTION('',(-1.,0.,0.));
#509=DIRECTION('',(0.,0.,-1.));
#510=DIRECTION('',(-1.,0.,0.));
#511=DIRECTION('',(0.,0.,-1.));
#512=DIRECTION('',(-1.,0.,0.));
#513=DIRECTION('',(0.,0.,-1.));
#514=DIRECTION('',(-1.,0.,0.));
#515=DIRECTION('',(0.,0.,-1.));
#516=DIRECTION('',(-1.,0.,0.));
#517=DIRECTION('',(0.,0.,-1.));
#518=DIRECTION('',(-1.,0.,0.));
#519=DIRECTION('',(1.,0.,0.));
#520=DIRECTION('',(0.,0.,-1.));
#521=DIRECTION('',(1.,0.,0.));
#522=DIRECTION('',(0.,0.,-1.));
#523=CARTESIAN_POINT('',(0.,0.,0.));
#524=CARTESIAN_POINT('',(0.,0.,48.5));
#525=CARTESIAN_POINT('',(0.,0.,50.));
#526=CARTESIAN_POINT('',(-34.5,0.,50.));
#527=CARTESIAN_POINT('',(0.,0.,48.5));
#528=CARTESIAN_POINT('',(-36.,0.,48.5));
#529=CARTESIAN_POINT('',(0.,34.5,50.));
#530=CARTESIAN_POINT('',(0.,0.,50.));
#531=CARTESIAN_POINT('',(-31.15,0.,50.));
#532=CARTESIAN_POINT('',(0.,0.,-500.));
#533=CARTESIAN_POINT('',(0.,0.,48.5));
#534=CARTESIAN_POINT('',(-31.15,0.,48.5));
#535=CARTESIAN_POINT('',(0.,31.15,48.5));
#536=CARTESIAN_POINT('',(0.,0.,48.5));
#537=CARTESIAN_POINT('',(-25.,0.,48.5));
#538=CARTESIAN_POINT('',(0.,0.,-500.));
#539=CARTESIAN_POINT('',(0.,0.,47.1));
#540=CARTESIAN_POINT('',(-25.,0.,47.1));
#541=CARTESIAN_POINT('',(0.,25.,47.1));
#542=CARTESIAN_POINT('',(0.,0.,47.1));
#543=CARTESIAN_POINT('',(-31.15,0.,47.1));
#544=CARTESIAN_POINT('',(0.,0.,-500.));
#545=CARTESIAN_POINT('',(0.,0.,11.5));
#546=CARTESIAN_POINT('',(-31.15,0.,11.5));
#547=CARTESIAN_POINT('',(31.1374277503364,0.980625313883892,43.7212527327155));
#548=CARTESIAN_POINT('',(31.1562800002578,-0.000250908452291155,43.3144522146686));
#549=CARTESIAN_POINT('',(31.1374522486324,-0.979621680074728,43.7209384086101));
#550=CARTESIAN_POINT('',(31.1186412795064,-1.38504950285308,44.6989796092886));
#551=CARTESIAN_POINT('',(31.1374405067415,-0.980179241270184,45.679142074335));
#552=CARTESIAN_POINT('',(31.1562653963587,-0.000189061218745896,46.0850969525047));
#553=CARTESIAN_POINT('',(31.13749788878,0.978267427628895,45.6804696410772));
#554=CARTESIAN_POINT('',(31.118633086326,1.38527585670854,44.701464709644));
#555=CARTESIAN_POINT('',(31.1374277503364,0.980625313883892,43.7212527327155));
#556=CARTESIAN_POINT('',(31.1562800002578,-0.000250908452291155,43.3144522146686));
#557=CARTESIAN_POINT('',(31.1374522486324,-0.979621680074728,43.7209384086101));
#558=CARTESIAN_POINT('',(31.15,0.,43.45));
#559=CARTESIAN_POINT('',(0.,31.15,11.5));
#560=CARTESIAN_POINT('',(0.,0.,11.5));
#561=CARTESIAN_POINT('',(-25.,0.,11.5));
#562=CARTESIAN_POINT('',(0.,0.,-500.));
#563=CARTESIAN_POINT('',(0.,0.,-11.5));
#564=CARTESIAN_POINT('',(-25.,0.,-11.5));
#565=CARTESIAN_POINT('',(0.,25.,-11.5));
#566=CARTESIAN_POINT('',(0.,0.,-11.5));
#567=CARTESIAN_POINT('',(-31.15,0.,-11.5));
#568=CARTESIAN_POINT('',(0.,0.,-500.));
#569=CARTESIAN_POINT('',(0.,0.,-47.1));
#570=CARTESIAN_POINT('',(-31.15,0.,-47.1));
#571=CARTESIAN_POINT('',(31.1374277503364,0.980625313883892,-45.6787472672845));
#572=CARTESIAN_POINT('',(31.1562800002578,-0.000250908452291155,-46.0855477853314));
#573=CARTESIAN_POINT('',(31.1374522486324,-0.979621680074728,-45.6790615913899));
#574=CARTESIAN_POINT('',(31.1186412795064,-1.38504950285308,-44.7010203907114));
#575=CARTESIAN_POINT('',(31.1374405067415,-0.980179241270184,-43.720857925665));
#576=CARTESIAN_POINT('',(31.1562653963587,-0.000189061218745896,-43.3149030474953));
#577=CARTESIAN_POINT('',(31.13749788878,0.978267427628895,-43.7195303589228));
#578=CARTESIAN_POINT('',(31.118633086326,1.38527585670854,-44.698535290356));
#579=CARTESIAN_POINT('',(31.1374277503364,0.980625313883892,-45.6787472672845));
#580=CARTESIAN_POINT('',(31.1562800002578,-0.000250908452291155,-46.0855477853314));
#581=CARTESIAN_POINT('',(31.1374522486324,-0.979621680074728,-45.6790615913899));
#582=CARTESIAN_POINT('',(31.15,0.,-45.95));
#583=CARTESIAN_POINT('',(0.,31.15,-47.1));
#584=CARTESIAN_POINT('',(0.,0.,-47.1));
#585=CARTESIAN_POINT('',(-25.,0.,-47.1));
#586=CARTESIAN_POINT('',(0.,0.,-500.));
#587=CARTESIAN_POINT('',(0.,0.,-48.5));
#588=CARTESIAN_POINT('',(-25.,0.,-48.5));
#589=CARTESIAN_POINT('',(0.,25.,-48.5));
#590=CARTESIAN_POINT('',(0.,0.,-48.5));
#591=CARTESIAN_POINT('',(-31.15,0.,-48.5));
#592=CARTESIAN_POINT('',(0.,0.,-500.));
#593=CARTESIAN_POINT('',(0.,0.,-50.));
#594=CARTESIAN_POINT('',(-31.15,0.,-50.));
#595=CARTESIAN_POINT('',(0.,31.15,-50.));
#596=CARTESIAN_POINT('',(0.,0.,-50.));
#597=CARTESIAN_POINT('',(-34.5,0.,-50.));
#598=CARTESIAN_POINT('',(0.,0.,-48.5));
#599=CARTESIAN_POINT('',(0.,0.,-48.5));
#600=CARTESIAN_POINT('',(-36.,0.,-48.5));
#601=CARTESIAN_POINT('',(0.,0.,-500.));
#602=CARTESIAN_POINT('',(0.,0.,-46.2));
#603=CARTESIAN_POINT('',(-36.,0.,-46.2));
#604=CARTESIAN_POINT('',(0.,36.,-46.2));
#605=CARTESIAN_POINT('',(0.,0.,-46.2));
#606=CARTESIAN_POINT('',(-35.,0.,-46.2));
#607=CARTESIAN_POINT('',(0.,0.,-500.));
#608=CARTESIAN_POINT('',(0.,0.,-43.2));
#609=CARTESIAN_POINT('',(-35.,0.,-43.2));
#610=CARTESIAN_POINT('',(34.9888106857213,-0.980625846073957,-45.678748014647));
#611=CARTESIAN_POINT('',(35.0055892013778,0.000251130420589145,-46.0855472808171));
#612=CARTESIAN_POINT('',(34.9888325087676,0.979621324391599,-45.6790628620846));
#613=CARTESIAN_POINT('',(34.9720935679976,1.3850485269745,-44.7010179894878));
#614=CARTESIAN_POINT('',(34.9888219518062,0.980183502546941,-43.7208623602806));
#615=CARTESIAN_POINT('',(35.0055762285143,0.000186907505753295,-43.3149016397502));
#616=CARTESIAN_POINT('',(34.9888731172324,-0.978266597953184,-43.7195315540347));
#617=CARTESIAN_POINT('',(34.9720862572631,-1.38527592705303,-44.6985308251287));
#618=CARTESIAN_POINT('',(34.9888106857213,-0.980625846073957,-45.678748014647));
#619=CARTESIAN_POINT('',(35.0055892013778,0.000251130420589145,-46.0855472808171));
#620=CARTESIAN_POINT('',(34.9888325087676,0.979621324391599,-45.6790628620846));
#621=CARTESIAN_POINT('',(35.,0.,-45.95));
#622=CARTESIAN_POINT('',(0.,35.,-43.2));
#623=CARTESIAN_POINT('',(0.,0.,-43.2));
#624=CARTESIAN_POINT('',(-36.,0.,-43.2));
#625=CARTESIAN_POINT('',(0.,0.,-500.));
#626=CARTESIAN_POINT('',(0.,0.,43.2));
#627=CARTESIAN_POINT('',(-36.,0.,43.2));
#628=CARTESIAN_POINT('',(0.,36.,43.2));
#629=CARTESIAN_POINT('',(0.,0.,43.2));
#630=CARTESIAN_POINT('',(-35.,0.,43.2));
#631=CARTESIAN_POINT('',(0.,0.,-500.));
#632=CARTESIAN_POINT('',(0.,0.,46.2));
#633=CARTESIAN_POINT('',(-35.,0.,46.2));
#634=CARTESIAN_POINT('',(34.9888106857213,-0.980625846073957,43.721251985353));
#635=CARTESIAN_POINT('',(35.0055892013778,0.000251130420589145,43.3144527191829));
#636=CARTESIAN_POINT('',(34.9888325087676,0.979621324391599,43.7209371379154));
#637=CARTESIAN_POINT('',(34.9720935679976,1.3850485269745,44.6989820105122));
#638=CARTESIAN_POINT('',(34.9888219518062,0.980183502546941,45.6791376397194));
#639=CARTESIAN_POINT('',(35.0055762285143,0.000186907505753295,46.0850983602498));
#640=CARTESIAN_POINT('',(34.9888731172324,-0.978266597953184,45.6804684459653));
#641=CARTESIAN_POINT('',(34.9720862572631,-1.38527592705303,44.7014691748713));
#642=CARTESIAN_POINT('',(34.9888106857213,-0.980625846073957,43.721251985353));
#643=CARTESIAN_POINT('',(35.0055892013778,0.000251130420589145,43.3144527191829));
#644=CARTESIAN_POINT('',(34.9888325087676,0.979621324391599,43.7209371379154));
#645=CARTESIAN_POINT('',(35.,0.,43.45));
#646=CARTESIAN_POINT('',(0.,35.,46.2));
#647=CARTESIAN_POINT('',(0.,0.,46.2));
#648=CARTESIAN_POINT('',(-36.,0.,46.2));
#649=CARTESIAN_POINT('',(0.,0.,-500.));
#650=CARTESIAN_POINT('',(0.,0.,44.7));
#651=CARTESIAN_POINT('',(0.,0.,-44.7));
#652=MECHANICAL_DESIGN_GEOMETRIC_PRESENTATION_REPRESENTATION('',(#347),
#653);
#653=(
GEOMETRIC_REPRESENTATION_CONTEXT(3)
GLOBAL_UNCERTAINTY_ASSIGNED_CONTEXT((#654))
GLOBAL_UNIT_ASSIGNED_CONTEXT((#657,#656,#655))
REPRESENTATION_CONTEXT('ST50','TOP_LEVEL_ASSEMBLY_PART')
);
#654=UNCERTAINTY_MEASURE_WITH_UNIT(LENGTH_MEASURE(0.005),#657,
'DISTANCE_ACCURACY_VALUE','Maximum Tolerance applied to model');
#655=(
NAMED_UNIT(*)
SI_UNIT($,.STERADIAN.)
SOLID_ANGLE_UNIT()
);
#656=(
NAMED_UNIT(*)
PLANE_ANGLE_UNIT()
SI_UNIT($,.RADIAN.)
);
#657=(
LENGTH_UNIT()
NAMED_UNIT(*)
SI_UNIT(.MILLI.,.METRE.)
);
#658=PRODUCT_DEFINITION_SHAPE('','',#659);
#659=PRODUCT_DEFINITION('','',#661,#660);
#660=DESIGN_CONTEXT('',#667,'design');
#661=PRODUCT_DEFINITION_FORMATION_WITH_SPECIFIED_SOURCE('','',#663,
 .NOT_KNOWN.);
#662=PRODUCT_RELATED_PRODUCT_CATEGORY('','',(#663));
#663=PRODUCT('ST50','ST50','ST50',(#665));
#664=PRODUCT_CATEGORY('','');
#665=MECHANICAL_CONTEXT('',#667,'mechanical');
#666=APPLICATION_PROTOCOL_DEFINITION('international standard',
'config_control_design',2010,#667);
#667=APPLICATION_CONTEXT(
'configuration controlled 3D designs of mechanical parts and assemblie
s');
ENDSEC;
END-ISO-10303-21;
