ISO-10303-21;
HEADER;
/* Generated by software containing ST-Developer
 * from STEP Tools, Inc. (www.steptools.com) 
 */
/* OPTION: using custom renumber hook */

FILE_DESCRIPTION(
/* description */ ('STEP AP203'),
/* implementation_level */ '2;1');

FILE_NAME(
/* name */ 'LMS8UU',
/* time_stamp */ '2022-08-22T02:20:23+02:00',
/* author */ ('License CC BY-ND 4.0'),
/* organization */ ('CADENAS'),
/* preprocessor_version */ 'ST-DEVELOPER v18.102',
/* originating_system */ 'PARTsolutions',
/* authorisation */ '  ');

FILE_SCHEMA (('CONFIG_CONTROL_DESIGN'));
ENDSEC;

DATA;
#10=PROPERTY_DEFINITION_REPRESENTATION(#14,#12);
#11=PROPERTY_DEFINITION_REPRESENTATION(#15,#13);
#12=REPRESENTATION('',(#16),#477);
#13=REPRESENTATION('',(#17),#477);
#14=PROPERTY_DEFINITION('pmi validation property','',#482);
#15=PROPERTY_DEFINITION('pmi validation property','',#482);
#16=VALUE_REPRESENTATION_ITEM('number of annotations',COUNT_MEASURE(0.));
#17=VALUE_REPRESENTATION_ITEM('number of views',COUNT_MEASURE(0.));
#18=SHAPE_REPRESENTATION_RELATIONSHIP('','',#273,#19);
#19=ADVANCED_BREP_SHAPE_REPRESENTATION('',(#271),#477);
#20=CYLINDRICAL_SURFACE('',#285,6.49999999999994);
#21=CYLINDRICAL_SURFACE('',#289,6.19999999999994);
#22=CYLINDRICAL_SURFACE('',#293,6.49999999999994);
#23=CYLINDRICAL_SURFACE('',#297,6.19999999999994);
#24=CYLINDRICAL_SURFACE('',#301,6.49999999999994);
#25=CYLINDRICAL_SURFACE('',#305,4.3);
#26=CYLINDRICAL_SURFACE('',#306,4.6);
#27=CYLINDRICAL_SURFACE('',#310,3.99999999999994);
#28=CYLINDRICAL_SURFACE('',#312,4.3);
#29=CYLINDRICAL_SURFACE('',#316,4.6);
#30=PLANE('',#278);
#31=PLANE('',#280);
#32=PLANE('',#287);
#33=PLANE('',#291);
#34=PLANE('',#295);
#35=PLANE('',#299);
#36=PLANE('',#302);
#37=PLANE('',#308);
#38=PLANE('',#314);
#39=PLANE('',#318);
#40=ORIENTED_EDGE('',*,*,#84,.T.);
#41=ORIENTED_EDGE('',*,*,#85,.F.);
#42=ORIENTED_EDGE('',*,*,#86,.T.);
#43=ORIENTED_EDGE('',*,*,#84,.F.);
#44=ORIENTED_EDGE('',*,*,#87,.T.);
#45=ORIENTED_EDGE('',*,*,#88,.F.);
#46=ORIENTED_EDGE('',*,*,#89,.T.);
#47=ORIENTED_EDGE('',*,*,#87,.F.);
#48=ORIENTED_EDGE('',*,*,#90,.T.);
#49=ORIENTED_EDGE('',*,*,#89,.F.);
#50=ORIENTED_EDGE('',*,*,#91,.T.);
#51=ORIENTED_EDGE('',*,*,#90,.F.);
#52=ORIENTED_EDGE('',*,*,#92,.T.);
#53=ORIENTED_EDGE('',*,*,#91,.F.);
#54=ORIENTED_EDGE('',*,*,#93,.T.);
#55=ORIENTED_EDGE('',*,*,#92,.F.);
#56=ORIENTED_EDGE('',*,*,#94,.T.);
#57=ORIENTED_EDGE('',*,*,#93,.F.);
#58=ORIENTED_EDGE('',*,*,#95,.T.);
#59=ORIENTED_EDGE('',*,*,#94,.F.);
#60=ORIENTED_EDGE('',*,*,#96,.T.);
#61=ORIENTED_EDGE('',*,*,#95,.F.);
#62=ORIENTED_EDGE('',*,*,#97,.T.);
#63=ORIENTED_EDGE('',*,*,#96,.F.);
#64=ORIENTED_EDGE('',*,*,#85,.T.);
#65=ORIENTED_EDGE('',*,*,#97,.F.);
#66=ORIENTED_EDGE('',*,*,#98,.T.);
#67=ORIENTED_EDGE('',*,*,#99,.F.);
#68=ORIENTED_EDGE('',*,*,#88,.T.);
#69=ORIENTED_EDGE('',*,*,#98,.F.);
#70=ORIENTED_EDGE('',*,*,#99,.T.);
#71=ORIENTED_EDGE('',*,*,#100,.F.);
#72=ORIENTED_EDGE('',*,*,#100,.T.);
#73=ORIENTED_EDGE('',*,*,#101,.F.);
#74=ORIENTED_EDGE('',*,*,#101,.T.);
#75=ORIENTED_EDGE('',*,*,#102,.F.);
#76=ORIENTED_EDGE('',*,*,#103,.T.);
#77=ORIENTED_EDGE('',*,*,#86,.F.);
#78=ORIENTED_EDGE('',*,*,#104,.T.);
#79=ORIENTED_EDGE('',*,*,#103,.F.);
#80=ORIENTED_EDGE('',*,*,#105,.T.);
#81=ORIENTED_EDGE('',*,*,#104,.F.);
#82=ORIENTED_EDGE('',*,*,#102,.T.);
#83=ORIENTED_EDGE('',*,*,#105,.F.);
#84=EDGE_CURVE('',#106,#106,#128,.T.);
#85=EDGE_CURVE('',#107,#107,#129,.T.);
#86=EDGE_CURVE('',#108,#108,#130,.T.);
#87=EDGE_CURVE('',#109,#109,#131,.T.);
#88=EDGE_CURVE('',#110,#110,#132,.T.);
#89=EDGE_CURVE('',#111,#111,#133,.T.);
#90=EDGE_CURVE('',#112,#112,#134,.T.);
#91=EDGE_CURVE('',#113,#113,#135,.T.);
#92=EDGE_CURVE('',#114,#114,#136,.T.);
#93=EDGE_CURVE('',#115,#115,#137,.T.);
#94=EDGE_CURVE('',#116,#116,#138,.T.);
#95=EDGE_CURVE('',#117,#117,#139,.T.);
#96=EDGE_CURVE('',#118,#118,#140,.T.);
#97=EDGE_CURVE('',#119,#119,#141,.T.);
#98=EDGE_CURVE('',#120,#120,#142,.T.);
#99=EDGE_CURVE('',#121,#121,#143,.T.);
#100=EDGE_CURVE('',#122,#122,#144,.T.);
#101=EDGE_CURVE('',#123,#123,#145,.T.);
#102=EDGE_CURVE('',#124,#124,#146,.T.);
#103=EDGE_CURVE('',#125,#125,#147,.T.);
#104=EDGE_CURVE('',#126,#126,#148,.T.);
#105=EDGE_CURVE('',#127,#127,#149,.T.);
#106=VERTEX_POINT('',#412);
#107=VERTEX_POINT('',#414);
#108=VERTEX_POINT('',#417);
#109=VERTEX_POINT('',#420);
#110=VERTEX_POINT('',#422);
#111=VERTEX_POINT('',#425);
#112=VERTEX_POINT('',#428);
#113=VERTEX_POINT('',#431);
#114=VERTEX_POINT('',#434);
#115=VERTEX_POINT('',#437);
#116=VERTEX_POINT('',#440);
#117=VERTEX_POINT('',#443);
#118=VERTEX_POINT('',#446);
#119=VERTEX_POINT('',#449);
#120=VERTEX_POINT('',#453);
#121=VERTEX_POINT('',#455);
#122=VERTEX_POINT('',#459);
#123=VERTEX_POINT('',#462);
#124=VERTEX_POINT('',#465);
#125=VERTEX_POINT('',#468);
#126=VERTEX_POINT('',#471);
#127=VERTEX_POINT('',#474);
#128=CIRCLE('',#276,5.92499999999994);
#129=CIRCLE('',#277,6.49999999999994);
#130=CIRCLE('',#279,4.3);
#131=CIRCLE('',#281,5.92499999999994);
#132=CIRCLE('',#282,4.3);
#133=CIRCLE('',#284,6.49999999999994);
#134=CIRCLE('',#286,6.49999999999994);
#135=CIRCLE('',#288,6.19999999999994);
#136=CIRCLE('',#290,6.19999999999994);
#137=CIRCLE('',#292,6.49999999999994);
#138=CIRCLE('',#294,6.49999999999994);
#139=CIRCLE('',#296,6.19999999999994);
#140=CIRCLE('',#298,6.19999999999994);
#141=CIRCLE('',#300,6.49999999999994);
#142=CIRCLE('',#303,4.3);
#143=CIRCLE('',#304,4.6);
#144=CIRCLE('',#307,4.6);
#145=CIRCLE('',#309,4.);
#146=CIRCLE('',#311,4.);
#147=CIRCLE('',#313,4.3);
#148=CIRCLE('',#315,4.6);
#149=CIRCLE('',#317,4.6);
#150=EDGE_LOOP('',(#40));
#151=EDGE_LOOP('',(#41));
#152=EDGE_LOOP('',(#42));
#153=EDGE_LOOP('',(#43));
#154=EDGE_LOOP('',(#44));
#155=EDGE_LOOP('',(#45));
#156=EDGE_LOOP('',(#46));
#157=EDGE_LOOP('',(#47));
#158=EDGE_LOOP('',(#48));
#159=EDGE_LOOP('',(#49));
#160=EDGE_LOOP('',(#50));
#161=EDGE_LOOP('',(#51));
#162=EDGE_LOOP('',(#52));
#163=EDGE_LOOP('',(#53));
#164=EDGE_LOOP('',(#54));
#165=EDGE_LOOP('',(#55));
#166=EDGE_LOOP('',(#56));
#167=EDGE_LOOP('',(#57));
#168=EDGE_LOOP('',(#58));
#169=EDGE_LOOP('',(#59));
#170=EDGE_LOOP('',(#60));
#171=EDGE_LOOP('',(#61));
#172=EDGE_LOOP('',(#62));
#173=EDGE_LOOP('',(#63));
#174=EDGE_LOOP('',(#64));
#175=EDGE_LOOP('',(#65));
#176=EDGE_LOOP('',(#66));
#177=EDGE_LOOP('',(#67));
#178=EDGE_LOOP('',(#68));
#179=EDGE_LOOP('',(#69));
#180=EDGE_LOOP('',(#70));
#181=EDGE_LOOP('',(#71));
#182=EDGE_LOOP('',(#72));
#183=EDGE_LOOP('',(#73));
#184=EDGE_LOOP('',(#74));
#185=EDGE_LOOP('',(#75));
#186=EDGE_LOOP('',(#76));
#187=EDGE_LOOP('',(#77));
#188=EDGE_LOOP('',(#78));
#189=EDGE_LOOP('',(#79));
#190=EDGE_LOOP('',(#80));
#191=EDGE_LOOP('',(#81));
#192=EDGE_LOOP('',(#82));
#193=EDGE_LOOP('',(#83));
#194=FACE_BOUND('',#150,.T.);
#195=FACE_BOUND('',#151,.T.);
#196=FACE_BOUND('',#152,.T.);
#197=FACE_BOUND('',#153,.T.);
#198=FACE_BOUND('',#154,.T.);
#199=FACE_BOUND('',#155,.T.);
#200=FACE_BOUND('',#156,.T.);
#201=FACE_BOUND('',#157,.T.);
#202=FACE_BOUND('',#158,.T.);
#203=FACE_BOUND('',#159,.T.);
#204=FACE_BOUND('',#160,.T.);
#205=FACE_BOUND('',#161,.T.);
#206=FACE_BOUND('',#162,.T.);
#207=FACE_BOUND('',#163,.T.);
#208=FACE_BOUND('',#164,.T.);
#209=FACE_BOUND('',#165,.T.);
#210=FACE_BOUND('',#166,.T.);
#211=FACE_BOUND('',#167,.T.);
#212=FACE_BOUND('',#168,.T.);
#213=FACE_BOUND('',#169,.T.);
#214=FACE_BOUND('',#170,.T.);
#215=FACE_BOUND('',#171,.T.);
#216=FACE_BOUND('',#172,.T.);
#217=FACE_BOUND('',#173,.T.);
#218=FACE_BOUND('',#174,.T.);
#219=FACE_BOUND('',#175,.T.);
#220=FACE_BOUND('',#176,.T.);
#221=FACE_BOUND('',#177,.T.);
#222=FACE_BOUND('',#178,.T.);
#223=FACE_BOUND('',#179,.T.);
#224=FACE_BOUND('',#180,.T.);
#225=FACE_BOUND('',#181,.T.);
#226=FACE_BOUND('',#182,.T.);
#227=FACE_BOUND('',#183,.T.);
#228=FACE_BOUND('',#184,.T.);
#229=FACE_BOUND('',#185,.T.);
#230=FACE_BOUND('',#186,.T.);
#231=FACE_BOUND('',#187,.T.);
#232=FACE_BOUND('',#188,.T.);
#233=FACE_BOUND('',#189,.T.);
#234=FACE_BOUND('',#190,.T.);
#235=FACE_BOUND('',#191,.T.);
#236=FACE_BOUND('',#192,.T.);
#237=FACE_BOUND('',#193,.T.);
#238=TOROIDAL_SURFACE('',#275,5.92499999999994,0.574999999999999);
#239=TOROIDAL_SURFACE('',#283,5.92499999999994,0.575000000000001);
#240=ADVANCED_FACE('',(#194,#195),#238,.T.);
#241=ADVANCED_FACE('',(#196,#197),#30,.T.);
#242=ADVANCED_FACE('',(#198,#199),#31,.T.);
#243=ADVANCED_FACE('',(#200,#201),#239,.T.);
#244=ADVANCED_FACE('',(#202,#203),#20,.T.);
#245=ADVANCED_FACE('',(#204,#205),#32,.T.);
#246=ADVANCED_FACE('',(#206,#207),#21,.T.);
#247=ADVANCED_FACE('',(#208,#209),#33,.T.);
#248=ADVANCED_FACE('',(#210,#211),#22,.T.);
#249=ADVANCED_FACE('',(#212,#213),#34,.T.);
#250=ADVANCED_FACE('',(#214,#215),#23,.T.);
#251=ADVANCED_FACE('',(#216,#217),#35,.T.);
#252=ADVANCED_FACE('',(#218,#219),#24,.T.);
#253=ADVANCED_FACE('',(#220,#221),#36,.T.);
#254=ADVANCED_FACE('',(#222,#223),#25,.F.);
#255=ADVANCED_FACE('',(#224,#225),#26,.F.);
#256=ADVANCED_FACE('',(#226,#227),#37,.T.);
#257=ADVANCED_FACE('',(#228,#229),#27,.F.);
#258=ADVANCED_FACE('',(#230,#231),#28,.F.);
#259=ADVANCED_FACE('',(#232,#233),#38,.T.);
#260=ADVANCED_FACE('',(#234,#235),#29,.F.);
#261=ADVANCED_FACE('',(#236,#237),#39,.T.);
#262=CLOSED_SHELL('',(#240,#241,#242,#243,#244,#245,#246,#247,#248,#249,
#250,#251,#252,#253,#254,#255,#256,#257,#258,#259,#260,#261));
#263=STYLED_ITEM('',(#264),#271);
#264=PRESENTATION_STYLE_ASSIGNMENT((#265));
#265=SURFACE_STYLE_USAGE(.BOTH.,#266);
#266=SURFACE_SIDE_STYLE('',(#267));
#267=SURFACE_STYLE_FILL_AREA(#268);
#268=FILL_AREA_STYLE('',(#269));
#269=FILL_AREA_STYLE_COLOUR('',#270);
#270=COLOUR_RGB('',0.689999997615814,0.689999997615814,0.689999997615814);
#271=MANIFOLD_SOLID_BREP('LMS8UU',#262);
#272=SHAPE_DEFINITION_REPRESENTATION(#482,#273);
#273=SHAPE_REPRESENTATION('LMS8UU',(#274),#477);
#274=AXIS2_PLACEMENT_3D('',#409,#319,#320);
#275=AXIS2_PLACEMENT_3D('',#410,#321,#322);
#276=AXIS2_PLACEMENT_3D('',#411,#323,#324);
#277=AXIS2_PLACEMENT_3D('',#413,#325,#326);
#278=AXIS2_PLACEMENT_3D('',#415,#327,#328);
#279=AXIS2_PLACEMENT_3D('',#416,#329,#330);
#280=AXIS2_PLACEMENT_3D('',#418,#331,#332);
#281=AXIS2_PLACEMENT_3D('',#419,#333,#334);
#282=AXIS2_PLACEMENT_3D('',#421,#335,#336);
#283=AXIS2_PLACEMENT_3D('',#423,#337,#338);
#284=AXIS2_PLACEMENT_3D('',#424,#339,#340);
#285=AXIS2_PLACEMENT_3D('',#426,#341,#342);
#286=AXIS2_PLACEMENT_3D('',#427,#343,#344);
#287=AXIS2_PLACEMENT_3D('',#429,#345,#346);
#288=AXIS2_PLACEMENT_3D('',#430,#347,#348);
#289=AXIS2_PLACEMENT_3D('',#432,#349,#350);
#290=AXIS2_PLACEMENT_3D('',#433,#351,#352);
#291=AXIS2_PLACEMENT_3D('',#435,#353,#354);
#292=AXIS2_PLACEMENT_3D('',#436,#355,#356);
#293=AXIS2_PLACEMENT_3D('',#438,#357,#358);
#294=AXIS2_PLACEMENT_3D('',#439,#359,#360);
#295=AXIS2_PLACEMENT_3D('',#441,#361,#362);
#296=AXIS2_PLACEMENT_3D('',#442,#363,#364);
#297=AXIS2_PLACEMENT_3D('',#444,#365,#366);
#298=AXIS2_PLACEMENT_3D('',#445,#367,#368);
#299=AXIS2_PLACEMENT_3D('',#447,#369,#370);
#300=AXIS2_PLACEMENT_3D('',#448,#371,#372);
#301=AXIS2_PLACEMENT_3D('',#450,#373,#374);
#302=AXIS2_PLACEMENT_3D('',#451,#375,#376);
#303=AXIS2_PLACEMENT_3D('',#452,#377,#378);
#304=AXIS2_PLACEMENT_3D('',#454,#379,#380);
#305=AXIS2_PLACEMENT_3D('',#456,#381,#382);
#306=AXIS2_PLACEMENT_3D('',#457,#383,#384);
#307=AXIS2_PLACEMENT_3D('',#458,#385,#386);
#308=AXIS2_PLACEMENT_3D('',#460,#387,#388);
#309=AXIS2_PLACEMENT_3D('',#461,#389,#390);
#310=AXIS2_PLACEMENT_3D('',#463,#391,#392);
#311=AXIS2_PLACEMENT_3D('',#464,#393,#394);
#312=AXIS2_PLACEMENT_3D('',#466,#395,#396);
#313=AXIS2_PLACEMENT_3D('',#467,#397,#398);
#314=AXIS2_PLACEMENT_3D('',#469,#399,#400);
#315=AXIS2_PLACEMENT_3D('',#470,#401,#402);
#316=AXIS2_PLACEMENT_3D('',#472,#403,#404);
#317=AXIS2_PLACEMENT_3D('',#473,#405,#406);
#318=AXIS2_PLACEMENT_3D('',#475,#407,#408);
#319=DIRECTION('',(0.,0.,1.));
#320=DIRECTION('',(1.,0.,0.));
#321=DIRECTION('',(1.,0.,0.));
#322=DIRECTION('',(0.,0.,-1.));
#323=DIRECTION('',(1.,0.,0.));
#324=DIRECTION('',(0.,0.,-1.));
#325=DIRECTION('',(1.,0.,0.));
#326=DIRECTION('',(0.,0.,-1.));
#327=DIRECTION('',(-1.,0.,0.));
#328=DIRECTION('',(0.,0.,1.));
#329=DIRECTION('',(1.,0.,0.));
#330=DIRECTION('',(0.,0.,-1.));
#331=DIRECTION('',(1.,0.,0.));
#332=DIRECTION('',(0.,0.,-1.));
#333=DIRECTION('',(1.,0.,0.));
#334=DIRECTION('',(0.,0.,-1.));
#335=DIRECTION('',(1.,0.,0.));
#336=DIRECTION('',(0.,0.,-1.));
#337=DIRECTION('',(1.,0.,0.));
#338=DIRECTION('',(0.,0.,-1.));
#339=DIRECTION('',(1.,0.,0.));
#340=DIRECTION('',(0.,0.,-1.));
#341=DIRECTION('',(1.,0.,0.));
#342=DIRECTION('',(0.,0.,-1.));
#343=DIRECTION('',(1.,0.,0.));
#344=DIRECTION('',(0.,0.,-1.));
#345=DIRECTION('',(-1.,0.,0.));
#346=DIRECTION('',(0.,0.,1.));
#347=DIRECTION('',(1.,0.,0.));
#348=DIRECTION('',(0.,0.,-1.));
#349=DIRECTION('',(1.,0.,0.));
#350=DIRECTION('',(0.,0.,-1.));
#351=DIRECTION('',(1.,0.,0.));
#352=DIRECTION('',(0.,0.,-1.));
#353=DIRECTION('',(1.,0.,0.));
#354=DIRECTION('',(0.,0.,-1.));
#355=DIRECTION('',(1.,0.,0.));
#356=DIRECTION('',(0.,0.,-1.));
#357=DIRECTION('',(1.,0.,0.));
#358=DIRECTION('',(0.,0.,-1.));
#359=DIRECTION('',(1.,0.,0.));
#360=DIRECTION('',(0.,0.,-1.));
#361=DIRECTION('',(-1.,0.,0.));
#362=DIRECTION('',(0.,0.,1.));
#363=DIRECTION('',(1.,0.,0.));
#364=DIRECTION('',(0.,0.,-1.));
#365=DIRECTION('',(1.,0.,0.));
#366=DIRECTION('',(0.,0.,-1.));
#367=DIRECTION('',(1.,0.,0.));
#368=DIRECTION('',(0.,0.,-1.));
#369=DIRECTION('',(1.,0.,0.));
#370=DIRECTION('',(0.,0.,-1.));
#371=DIRECTION('',(1.,0.,0.));
#372=DIRECTION('',(0.,0.,-1.));
#373=DIRECTION('',(1.,0.,0.));
#374=DIRECTION('',(0.,0.,-1.));
#375=DIRECTION('',(-1.,0.,0.));
#376=DIRECTION('',(0.,0.,1.));
#377=DIRECTION('',(1.,0.,0.));
#378=DIRECTION('',(0.,0.,-1.));
#379=DIRECTION('',(1.,0.,0.));
#380=DIRECTION('',(0.,0.,-1.));
#381=DIRECTION('',(1.,0.,0.));
#382=DIRECTION('',(0.,0.,-1.));
#383=DIRECTION('',(1.,0.,0.));
#384=DIRECTION('',(0.,0.,-1.));
#385=DIRECTION('',(1.,0.,0.));
#386=DIRECTION('',(0.,0.,-1.));
#387=DIRECTION('',(1.,0.,0.));
#388=DIRECTION('',(0.,0.,-1.));
#389=DIRECTION('',(1.,0.,0.));
#390=DIRECTION('',(0.,0.,-1.));
#391=DIRECTION('',(1.,0.,0.));
#392=DIRECTION('',(0.,0.,-1.));
#393=DIRECTION('',(1.,0.,0.));
#394=DIRECTION('',(0.,0.,-1.));
#395=DIRECTION('',(1.,0.,0.));
#396=DIRECTION('',(0.,0.,-1.));
#397=DIRECTION('',(1.,0.,0.));
#398=DIRECTION('',(0.,0.,-1.));
#399=DIRECTION('',(1.,0.,0.));
#400=DIRECTION('',(0.,0.,-1.));
#401=DIRECTION('',(1.,0.,0.));
#402=DIRECTION('',(0.,0.,-1.));
#403=DIRECTION('',(1.,0.,0.));
#404=DIRECTION('',(0.,0.,-1.));
#405=DIRECTION('',(1.,0.,0.));
#406=DIRECTION('',(0.,0.,-1.));
#407=DIRECTION('',(-1.,0.,0.));
#408=DIRECTION('',(0.,0.,1.));
#409=CARTESIAN_POINT('',(0.,0.,0.));
#410=CARTESIAN_POINT('',(-11.425,5.72458747072346E-14,0.));
#411=CARTESIAN_POINT('',(-12.,5.6843418860808E-14,0.));
#412=CARTESIAN_POINT('',(-12.,5.6843418860808E-14,-5.92499999999994));
#413=CARTESIAN_POINT('',(-11.425,5.6843418860808E-14,0.));
#414=CARTESIAN_POINT('',(-11.425,5.6843418860808E-14,-6.49999999999994));
#415=CARTESIAN_POINT('',(-12.,5.925,0.));
#416=CARTESIAN_POINT('',(-12.,0.,0.));
#417=CARTESIAN_POINT('',(-12.,0.,-4.3));
#418=CARTESIAN_POINT('',(12.,4.,0.));
#419=CARTESIAN_POINT('',(12.,5.6843418860808E-14,0.));
#420=CARTESIAN_POINT('',(12.,5.6843418860808E-14,-5.92499999999994));
#421=CARTESIAN_POINT('',(12.,0.,0.));
#422=CARTESIAN_POINT('',(12.,0.,-4.3));
#423=CARTESIAN_POINT('',(11.425,5.72458747072346E-14,0.));
#424=CARTESIAN_POINT('',(11.425,5.6843418860808E-14,0.));
#425=CARTESIAN_POINT('',(11.425,5.6843418860808E-14,-6.49999999999994));
#426=CARTESIAN_POINT('',(12.,5.6843418860808E-14,0.));
#427=CARTESIAN_POINT('',(8.8,5.6843418860808E-14,0.));
#428=CARTESIAN_POINT('',(8.8,5.6843418860808E-14,-6.49999999999994));
#429=CARTESIAN_POINT('',(8.8,6.5,0.));
#430=CARTESIAN_POINT('',(8.8,5.6843418860808E-14,0.));
#431=CARTESIAN_POINT('',(8.8,5.6843418860808E-14,-6.19999999999994));
#432=CARTESIAN_POINT('',(12.,5.6843418860808E-14,0.));
#433=CARTESIAN_POINT('',(7.65,5.6843418860808E-14,0.));
#434=CARTESIAN_POINT('',(7.65,5.6843418860808E-14,-6.19999999999994));
#435=CARTESIAN_POINT('',(7.65,6.2,0.));
#436=CARTESIAN_POINT('',(7.65,5.6843418860808E-14,0.));
#437=CARTESIAN_POINT('',(7.65,5.6843418860808E-14,-6.49999999999994));
#438=CARTESIAN_POINT('',(12.,5.6843418860808E-14,0.));
#439=CARTESIAN_POINT('',(-7.65,5.6843418860808E-14,0.));
#440=CARTESIAN_POINT('',(-7.65,5.6843418860808E-14,-6.49999999999994));
#441=CARTESIAN_POINT('',(-7.65,6.5,0.));
#442=CARTESIAN_POINT('',(-7.65,5.6843418860808E-14,0.));
#443=CARTESIAN_POINT('',(-7.65,5.6843418860808E-14,-6.19999999999994));
#444=CARTESIAN_POINT('',(12.,5.6843418860808E-14,0.));
#445=CARTESIAN_POINT('',(-8.79999999999996,5.6843418860808E-14,0.));
#446=CARTESIAN_POINT('',(-8.79999999999996,5.6843418860808E-14,-6.19999999999994));
#447=CARTESIAN_POINT('',(-8.79999999999996,6.2,0.));
#448=CARTESIAN_POINT('',(-8.79999999999996,5.6843418860808E-14,0.));
#449=CARTESIAN_POINT('',(-8.79999999999996,5.6843418860808E-14,-6.49999999999994));
#450=CARTESIAN_POINT('',(12.,5.6843418860808E-14,0.));
#451=CARTESIAN_POINT('',(11.3,4.6,0.));
#452=CARTESIAN_POINT('',(11.3,0.,0.));
#453=CARTESIAN_POINT('',(11.3,0.,-4.3));
#454=CARTESIAN_POINT('',(11.3,0.,0.));
#455=CARTESIAN_POINT('',(11.3,0.,-4.6));
#456=CARTESIAN_POINT('',(12.,0.,0.));
#457=CARTESIAN_POINT('',(12.,0.,0.));
#458=CARTESIAN_POINT('',(10.95,0.,0.));
#459=CARTESIAN_POINT('',(10.95,0.,-4.6));
#460=CARTESIAN_POINT('',(10.95,4.,0.));
#461=CARTESIAN_POINT('',(10.95,0.,0.));
#462=CARTESIAN_POINT('',(10.95,0.,-4.));
#463=CARTESIAN_POINT('',(12.,5.6843418860808E-14,0.));
#464=CARTESIAN_POINT('',(-10.95,0.,0.));
#465=CARTESIAN_POINT('',(-10.95,0.,-4.));
#466=CARTESIAN_POINT('',(12.,0.,0.));
#467=CARTESIAN_POINT('',(-11.3,0.,0.));
#468=CARTESIAN_POINT('',(-11.3,0.,-4.3));
#469=CARTESIAN_POINT('',(-11.3,4.3,0.));
#470=CARTESIAN_POINT('',(-11.3,0.,0.));
#471=CARTESIAN_POINT('',(-11.3,0.,-4.6));
#472=CARTESIAN_POINT('',(12.,0.,0.));
#473=CARTESIAN_POINT('',(-10.95,0.,0.));
#474=CARTESIAN_POINT('',(-10.95,0.,-4.6));
#475=CARTESIAN_POINT('',(-10.95,4.6,0.));
#476=MECHANICAL_DESIGN_GEOMETRIC_PRESENTATION_REPRESENTATION('',(#263),
#477);
#477=(
GEOMETRIC_REPRESENTATION_CONTEXT(3)
GLOBAL_UNCERTAINTY_ASSIGNED_CONTEXT((#478))
GLOBAL_UNIT_ASSIGNED_CONTEXT((#481,#480,#479))
REPRESENTATION_CONTEXT('LMS8UU','TOP_LEVEL_ASSEMBLY_PART')
);
#478=UNCERTAINTY_MEASURE_WITH_UNIT(LENGTH_MEASURE(0.005),#481,
'DISTANCE_ACCURACY_VALUE','Maximum Tolerance applied to model');
#479=(
NAMED_UNIT(*)
SI_UNIT($,.STERADIAN.)
SOLID_ANGLE_UNIT()
);
#480=(
NAMED_UNIT(*)
PLANE_ANGLE_UNIT()
SI_UNIT($,.RADIAN.)
);
#481=(
LENGTH_UNIT()
NAMED_UNIT(*)
SI_UNIT(.MILLI.,.METRE.)
);
#482=PRODUCT_DEFINITION_SHAPE('','',#483);
#483=PRODUCT_DEFINITION('','',#485,#484);
#484=DESIGN_CONTEXT('',#491,'design');
#485=PRODUCT_DEFINITION_FORMATION_WITH_SPECIFIED_SOURCE('','',#487,
 .NOT_KNOWN.);
#486=PRODUCT_RELATED_PRODUCT_CATEGORY('','',(#487));
#487=PRODUCT('LMS8UU','LMS8UU','LMS8UU',(#489));
#488=PRODUCT_CATEGORY('','');
#489=MECHANICAL_CONTEXT('',#491,'mechanical');
#490=APPLICATION_PROTOCOL_DEFINITION('international standard',
'config_control_design',2010,#491);
#491=APPLICATION_CONTEXT(
'configuration controlled 3D designs of mechanical parts and assemblie
s');
ENDSEC;
END-ISO-10303-21;
