ISO-10303-21;
HEADER;
/* Generated by software containing ST-Developer
 * from STEP Tools, Inc. (www.steptools.com) 
 */
/* OPTION: using custom renumber hook */

FILE_DESCRIPTION(
/* description */ ('STEP AP203'),
/* implementation_level */ '2;1');

FILE_NAME(
/* name */ 'LMFP6LUU',
/* time_stamp */ '2022-08-16T08:43:21+02:00',
/* author */ ('License CC BY-ND 4.0'),
/* organization */ ('CADENAS'),
/* preprocessor_version */ 'ST-DEVELOPER v18.102',
/* originating_system */ 'PARTsolutions',
/* authorisation */ '  ');

FILE_SCHEMA (('CONFIG_CONTROL_DESIGN'));
ENDSEC;

DATA;
#10=PROPERTY_DEFINITION_REPRESENTATION(#14,#12);
#11=PROPERTY_DEFINITION_REPRESENTATION(#15,#13);
#12=REPRESENTATION('',(#16),#733);
#13=REPRESENTATION('',(#17),#733);
#14=PROPERTY_DEFINITION('pmi validation property','',#738);
#15=PROPERTY_DEFINITION('pmi validation property','',#738);
#16=VALUE_REPRESENTATION_ITEM('number of annotations',COUNT_MEASURE(0.));
#17=VALUE_REPRESENTATION_ITEM('number of views',COUNT_MEASURE(0.));
#18=SHAPE_REPRESENTATION_RELATIONSHIP('','',#419,#19);
#19=ADVANCED_BREP_SHAPE_REPRESENTATION('',(#417),#733);
#20=CONICAL_SURFACE('',#439,13.6464466094067,0.785398163397451);
#21=CONICAL_SURFACE('',#443,14.,0.785398163397448);
#22=CYLINDRICAL_SURFACE('',#431,6.);
#23=CYLINDRICAL_SURFACE('',#441,14.);
#24=CYLINDRICAL_SURFACE('',#451,6.);
#25=CYLINDRICAL_SURFACE('',#452,1.75000000000006);
#26=CYLINDRICAL_SURFACE('',#456,3.);
#27=CYLINDRICAL_SURFACE('',#457,1.75000000000006);
#28=CYLINDRICAL_SURFACE('',#461,3.);
#29=CYLINDRICAL_SURFACE('',#462,1.75000000000006);
#30=CYLINDRICAL_SURFACE('',#466,3.);
#31=CYLINDRICAL_SURFACE('',#467,1.75000000000006);
#32=CYLINDRICAL_SURFACE('',#471,3.);
#33=CYLINDRICAL_SURFACE('',#475,3.2);
#34=CYLINDRICAL_SURFACE('',#476,3.4);
#35=CYLINDRICAL_SURFACE('',#480,3.);
#36=CYLINDRICAL_SURFACE('',#482,3.2);
#37=CYLINDRICAL_SURFACE('',#486,3.4);
#38=PLANE('',#424);
#39=PLANE('',#426);
#40=PLANE('',#433);
#41=PLANE('',#445);
#42=PLANE('',#454);
#43=PLANE('',#459);
#44=PLANE('',#464);
#45=PLANE('',#469);
#46=PLANE('',#472);
#47=PLANE('',#478);
#48=PLANE('',#484);
#49=PLANE('',#488);
#50=ORIENTED_EDGE('',*,*,#122,.T.);
#51=ORIENTED_EDGE('',*,*,#123,.F.);
#52=ORIENTED_EDGE('',*,*,#124,.T.);
#53=ORIENTED_EDGE('',*,*,#122,.F.);
#54=ORIENTED_EDGE('',*,*,#125,.T.);
#55=ORIENTED_EDGE('',*,*,#126,.F.);
#56=ORIENTED_EDGE('',*,*,#127,.T.);
#57=ORIENTED_EDGE('',*,*,#125,.F.);
#58=ORIENTED_EDGE('',*,*,#128,.T.);
#59=ORIENTED_EDGE('',*,*,#127,.F.);
#60=ORIENTED_EDGE('',*,*,#129,.T.);
#61=ORIENTED_EDGE('',*,*,#130,.T.);
#62=ORIENTED_EDGE('',*,*,#131,.F.);
#63=ORIENTED_EDGE('',*,*,#132,.F.);
#64=ORIENTED_EDGE('',*,*,#133,.F.);
#65=ORIENTED_EDGE('',*,*,#128,.F.);
#66=ORIENTED_EDGE('',*,*,#134,.T.);
#67=ORIENTED_EDGE('',*,*,#129,.F.);
#68=ORIENTED_EDGE('',*,*,#135,.T.);
#69=ORIENTED_EDGE('',*,*,#134,.F.);
#70=ORIENTED_EDGE('',*,*,#136,.T.);
#71=ORIENTED_EDGE('',*,*,#135,.F.);
#72=ORIENTED_EDGE('',*,*,#137,.T.);
#73=ORIENTED_EDGE('',*,*,#138,.T.);
#74=ORIENTED_EDGE('',*,*,#139,.T.);
#75=ORIENTED_EDGE('',*,*,#140,.T.);
#76=ORIENTED_EDGE('',*,*,#141,.T.);
#77=ORIENTED_EDGE('',*,*,#136,.F.);
#78=ORIENTED_EDGE('',*,*,#123,.T.);
#79=ORIENTED_EDGE('',*,*,#137,.F.);
#80=ORIENTED_EDGE('',*,*,#142,.T.);
#81=ORIENTED_EDGE('',*,*,#138,.F.);
#82=ORIENTED_EDGE('',*,*,#143,.T.);
#83=ORIENTED_EDGE('',*,*,#142,.F.);
#84=ORIENTED_EDGE('',*,*,#130,.F.);
#85=ORIENTED_EDGE('',*,*,#143,.F.);
#86=ORIENTED_EDGE('',*,*,#144,.T.);
#87=ORIENTED_EDGE('',*,*,#141,.F.);
#88=ORIENTED_EDGE('',*,*,#145,.T.);
#89=ORIENTED_EDGE('',*,*,#144,.F.);
#90=ORIENTED_EDGE('',*,*,#133,.T.);
#91=ORIENTED_EDGE('',*,*,#145,.F.);
#92=ORIENTED_EDGE('',*,*,#146,.T.);
#93=ORIENTED_EDGE('',*,*,#140,.F.);
#94=ORIENTED_EDGE('',*,*,#147,.T.);
#95=ORIENTED_EDGE('',*,*,#146,.F.);
#96=ORIENTED_EDGE('',*,*,#132,.T.);
#97=ORIENTED_EDGE('',*,*,#147,.F.);
#98=ORIENTED_EDGE('',*,*,#148,.T.);
#99=ORIENTED_EDGE('',*,*,#139,.F.);
#100=ORIENTED_EDGE('',*,*,#149,.T.);
#101=ORIENTED_EDGE('',*,*,#148,.F.);
#102=ORIENTED_EDGE('',*,*,#131,.T.);
#103=ORIENTED_EDGE('',*,*,#149,.F.);
#104=ORIENTED_EDGE('',*,*,#150,.T.);
#105=ORIENTED_EDGE('',*,*,#151,.F.);
#106=ORIENTED_EDGE('',*,*,#126,.T.);
#107=ORIENTED_EDGE('',*,*,#150,.F.);
#108=ORIENTED_EDGE('',*,*,#151,.T.);
#109=ORIENTED_EDGE('',*,*,#152,.F.);
#110=ORIENTED_EDGE('',*,*,#152,.T.);
#111=ORIENTED_EDGE('',*,*,#153,.F.);
#112=ORIENTED_EDGE('',*,*,#153,.T.);
#113=ORIENTED_EDGE('',*,*,#154,.F.);
#114=ORIENTED_EDGE('',*,*,#155,.T.);
#115=ORIENTED_EDGE('',*,*,#124,.F.);
#116=ORIENTED_EDGE('',*,*,#156,.T.);
#117=ORIENTED_EDGE('',*,*,#155,.F.);
#118=ORIENTED_EDGE('',*,*,#157,.T.);
#119=ORIENTED_EDGE('',*,*,#156,.F.);
#120=ORIENTED_EDGE('',*,*,#154,.T.);
#121=ORIENTED_EDGE('',*,*,#157,.F.);
#122=EDGE_CURVE('',#158,#158,#194,.T.);
#123=EDGE_CURVE('',#159,#159,#195,.T.);
#124=EDGE_CURVE('',#160,#160,#196,.T.);
#125=EDGE_CURVE('',#161,#161,#197,.T.);
#126=EDGE_CURVE('',#162,#162,#198,.T.);
#127=EDGE_CURVE('',#163,#163,#199,.T.);
#128=EDGE_CURVE('',#164,#164,#200,.T.);
#129=EDGE_CURVE('',#165,#165,#201,.T.);
#130=EDGE_CURVE('',#166,#166,#202,.F.);
#131=EDGE_CURVE('',#167,#167,#203,.T.);
#132=EDGE_CURVE('',#168,#168,#204,.T.);
#133=EDGE_CURVE('',#169,#169,#205,.T.);
#134=EDGE_CURVE('',#170,#170,#206,.T.);
#135=EDGE_CURVE('',#171,#171,#207,.T.);
#136=EDGE_CURVE('',#172,#172,#208,.T.);
#137=EDGE_CURVE('',#173,#173,#209,.T.);
#138=EDGE_CURVE('',#174,#174,#210,.F.);
#139=EDGE_CURVE('',#175,#175,#211,.T.);
#140=EDGE_CURVE('',#176,#176,#212,.T.);
#141=EDGE_CURVE('',#177,#177,#213,.T.);
#142=EDGE_CURVE('',#178,#178,#214,.T.);
#143=EDGE_CURVE('',#179,#179,#215,.T.);
#144=EDGE_CURVE('',#180,#180,#216,.T.);
#145=EDGE_CURVE('',#181,#181,#217,.T.);
#146=EDGE_CURVE('',#182,#182,#218,.T.);
#147=EDGE_CURVE('',#183,#183,#219,.T.);
#148=EDGE_CURVE('',#184,#184,#220,.T.);
#149=EDGE_CURVE('',#185,#185,#221,.T.);
#150=EDGE_CURVE('',#186,#186,#222,.T.);
#151=EDGE_CURVE('',#187,#187,#223,.T.);
#152=EDGE_CURVE('',#188,#188,#224,.T.);
#153=EDGE_CURVE('',#189,#189,#225,.T.);
#154=EDGE_CURVE('',#190,#190,#226,.T.);
#155=EDGE_CURVE('',#191,#191,#227,.T.);
#156=EDGE_CURVE('',#192,#192,#228,.T.);
#157=EDGE_CURVE('',#193,#193,#229,.T.);
#158=VERTEX_POINT('',#630);
#159=VERTEX_POINT('',#632);
#160=VERTEX_POINT('',#635);
#161=VERTEX_POINT('',#638);
#162=VERTEX_POINT('',#640);
#163=VERTEX_POINT('',#643);
#164=VERTEX_POINT('',#646);
#165=VERTEX_POINT('',#649);
#166=VERTEX_POINT('',#651);
#167=VERTEX_POINT('',#653);
#168=VERTEX_POINT('',#655);
#169=VERTEX_POINT('',#657);
#170=VERTEX_POINT('',#660);
#171=VERTEX_POINT('',#663);
#172=VERTEX_POINT('',#666);
#173=VERTEX_POINT('',#669);
#174=VERTEX_POINT('',#671);
#175=VERTEX_POINT('',#673);
#176=VERTEX_POINT('',#675);
#177=VERTEX_POINT('',#677);
#178=VERTEX_POINT('',#681);
#179=VERTEX_POINT('',#684);
#180=VERTEX_POINT('',#688);
#181=VERTEX_POINT('',#691);
#182=VERTEX_POINT('',#695);
#183=VERTEX_POINT('',#698);
#184=VERTEX_POINT('',#702);
#185=VERTEX_POINT('',#705);
#186=VERTEX_POINT('',#709);
#187=VERTEX_POINT('',#711);
#188=VERTEX_POINT('',#715);
#189=VERTEX_POINT('',#718);
#190=VERTEX_POINT('',#721);
#191=VERTEX_POINT('',#724);
#192=VERTEX_POINT('',#727);
#193=VERTEX_POINT('',#730);
#194=CIRCLE('',#422,5.5);
#195=CIRCLE('',#423,6.);
#196=CIRCLE('',#425,3.2);
#197=CIRCLE('',#427,5.5);
#198=CIRCLE('',#428,3.2);
#199=CIRCLE('',#430,6.);
#200=CIRCLE('',#432,6.);
#201=CIRCLE('',#434,13.6464466094067);
#202=CIRCLE('',#435,3.);
#203=CIRCLE('',#436,3.);
#204=CIRCLE('',#437,3.);
#205=CIRCLE('',#438,3.);
#206=CIRCLE('',#440,14.);
#207=CIRCLE('',#442,14.);
#208=CIRCLE('',#444,13.6464466094067);
#209=CIRCLE('',#446,6.);
#210=CIRCLE('',#447,1.75000000000006);
#211=CIRCLE('',#448,1.75000000000006);
#212=CIRCLE('',#449,1.75000000000006);
#213=CIRCLE('',#450,1.75000000000006);
#214=CIRCLE('',#453,1.75000000000006);
#215=CIRCLE('',#455,3.);
#216=CIRCLE('',#458,1.75000000000006);
#217=CIRCLE('',#460,3.);
#218=CIRCLE('',#463,1.75000000000006);
#219=CIRCLE('',#465,3.);
#220=CIRCLE('',#468,1.75000000000006);
#221=CIRCLE('',#470,3.);
#222=CIRCLE('',#473,3.2);
#223=CIRCLE('',#474,3.4);
#224=CIRCLE('',#477,3.4);
#225=CIRCLE('',#479,3.);
#226=CIRCLE('',#481,3.);
#227=CIRCLE('',#483,3.2);
#228=CIRCLE('',#485,3.4);
#229=CIRCLE('',#487,3.4);
#230=EDGE_LOOP('',(#50));
#231=EDGE_LOOP('',(#51));
#232=EDGE_LOOP('',(#52));
#233=EDGE_LOOP('',(#53));
#234=EDGE_LOOP('',(#54));
#235=EDGE_LOOP('',(#55));
#236=EDGE_LOOP('',(#56));
#237=EDGE_LOOP('',(#57));
#238=EDGE_LOOP('',(#58));
#239=EDGE_LOOP('',(#59));
#240=EDGE_LOOP('',(#60));
#241=EDGE_LOOP('',(#61));
#242=EDGE_LOOP('',(#62));
#243=EDGE_LOOP('',(#63));
#244=EDGE_LOOP('',(#64));
#245=EDGE_LOOP('',(#65));
#246=EDGE_LOOP('',(#66));
#247=EDGE_LOOP('',(#67));
#248=EDGE_LOOP('',(#68));
#249=EDGE_LOOP('',(#69));
#250=EDGE_LOOP('',(#70));
#251=EDGE_LOOP('',(#71));
#252=EDGE_LOOP('',(#72));
#253=EDGE_LOOP('',(#73));
#254=EDGE_LOOP('',(#74));
#255=EDGE_LOOP('',(#75));
#256=EDGE_LOOP('',(#76));
#257=EDGE_LOOP('',(#77));
#258=EDGE_LOOP('',(#78));
#259=EDGE_LOOP('',(#79));
#260=EDGE_LOOP('',(#80));
#261=EDGE_LOOP('',(#81));
#262=EDGE_LOOP('',(#82));
#263=EDGE_LOOP('',(#83));
#264=EDGE_LOOP('',(#84));
#265=EDGE_LOOP('',(#85));
#266=EDGE_LOOP('',(#86));
#267=EDGE_LOOP('',(#87));
#268=EDGE_LOOP('',(#88));
#269=EDGE_LOOP('',(#89));
#270=EDGE_LOOP('',(#90));
#271=EDGE_LOOP('',(#91));
#272=EDGE_LOOP('',(#92));
#273=EDGE_LOOP('',(#93));
#274=EDGE_LOOP('',(#94));
#275=EDGE_LOOP('',(#95));
#276=EDGE_LOOP('',(#96));
#277=EDGE_LOOP('',(#97));
#278=EDGE_LOOP('',(#98));
#279=EDGE_LOOP('',(#99));
#280=EDGE_LOOP('',(#100));
#281=EDGE_LOOP('',(#101));
#282=EDGE_LOOP('',(#102));
#283=EDGE_LOOP('',(#103));
#284=EDGE_LOOP('',(#104));
#285=EDGE_LOOP('',(#105));
#286=EDGE_LOOP('',(#106));
#287=EDGE_LOOP('',(#107));
#288=EDGE_LOOP('',(#108));
#289=EDGE_LOOP('',(#109));
#290=EDGE_LOOP('',(#110));
#291=EDGE_LOOP('',(#111));
#292=EDGE_LOOP('',(#112));
#293=EDGE_LOOP('',(#113));
#294=EDGE_LOOP('',(#114));
#295=EDGE_LOOP('',(#115));
#296=EDGE_LOOP('',(#116));
#297=EDGE_LOOP('',(#117));
#298=EDGE_LOOP('',(#118));
#299=EDGE_LOOP('',(#119));
#300=EDGE_LOOP('',(#120));
#301=EDGE_LOOP('',(#121));
#302=FACE_BOUND('',#230,.T.);
#303=FACE_BOUND('',#231,.T.);
#304=FACE_BOUND('',#232,.T.);
#305=FACE_BOUND('',#233,.T.);
#306=FACE_BOUND('',#234,.T.);
#307=FACE_BOUND('',#235,.T.);
#308=FACE_BOUND('',#236,.T.);
#309=FACE_BOUND('',#237,.T.);
#310=FACE_BOUND('',#238,.T.);
#311=FACE_BOUND('',#239,.T.);
#312=FACE_BOUND('',#240,.T.);
#313=FACE_BOUND('',#241,.T.);
#314=FACE_BOUND('',#242,.T.);
#315=FACE_BOUND('',#243,.T.);
#316=FACE_BOUND('',#244,.T.);
#317=FACE_BOUND('',#245,.T.);
#318=FACE_BOUND('',#246,.T.);
#319=FACE_BOUND('',#247,.T.);
#320=FACE_BOUND('',#248,.T.);
#321=FACE_BOUND('',#249,.T.);
#322=FACE_BOUND('',#250,.T.);
#323=FACE_BOUND('',#251,.T.);
#324=FACE_BOUND('',#252,.T.);
#325=FACE_BOUND('',#253,.T.);
#326=FACE_BOUND('',#254,.T.);
#327=FACE_BOUND('',#255,.T.);
#328=FACE_BOUND('',#256,.T.);
#329=FACE_BOUND('',#257,.T.);
#330=FACE_BOUND('',#258,.T.);
#331=FACE_BOUND('',#259,.T.);
#332=FACE_BOUND('',#260,.T.);
#333=FACE_BOUND('',#261,.T.);
#334=FACE_BOUND('',#262,.T.);
#335=FACE_BOUND('',#263,.T.);
#336=FACE_BOUND('',#264,.T.);
#337=FACE_BOUND('',#265,.T.);
#338=FACE_BOUND('',#266,.T.);
#339=FACE_BOUND('',#267,.T.);
#340=FACE_BOUND('',#268,.T.);
#341=FACE_BOUND('',#269,.T.);
#342=FACE_BOUND('',#270,.T.);
#343=FACE_BOUND('',#271,.T.);
#344=FACE_BOUND('',#272,.T.);
#345=FACE_BOUND('',#273,.T.);
#346=FACE_BOUND('',#274,.T.);
#347=FACE_BOUND('',#275,.T.);
#348=FACE_BOUND('',#276,.T.);
#349=FACE_BOUND('',#277,.T.);
#350=FACE_BOUND('',#278,.T.);
#351=FACE_BOUND('',#279,.T.);
#352=FACE_BOUND('',#280,.T.);
#353=FACE_BOUND('',#281,.T.);
#354=FACE_BOUND('',#282,.T.);
#355=FACE_BOUND('',#283,.T.);
#356=FACE_BOUND('',#284,.T.);
#357=FACE_BOUND('',#285,.T.);
#358=FACE_BOUND('',#286,.T.);
#359=FACE_BOUND('',#287,.T.);
#360=FACE_BOUND('',#288,.T.);
#361=FACE_BOUND('',#289,.T.);
#362=FACE_BOUND('',#290,.T.);
#363=FACE_BOUND('',#291,.T.);
#364=FACE_BOUND('',#292,.T.);
#365=FACE_BOUND('',#293,.T.);
#366=FACE_BOUND('',#294,.T.);
#367=FACE_BOUND('',#295,.T.);
#368=FACE_BOUND('',#296,.T.);
#369=FACE_BOUND('',#297,.T.);
#370=FACE_BOUND('',#298,.T.);
#371=FACE_BOUND('',#299,.T.);
#372=FACE_BOUND('',#300,.T.);
#373=FACE_BOUND('',#301,.T.);
#374=TOROIDAL_SURFACE('',#421,5.5,0.500000000000005);
#375=TOROIDAL_SURFACE('',#429,5.5,0.5);
#376=ADVANCED_FACE('',(#302,#303),#374,.T.);
#377=ADVANCED_FACE('',(#304,#305),#38,.T.);
#378=ADVANCED_FACE('',(#306,#307),#39,.T.);
#379=ADVANCED_FACE('',(#308,#309),#375,.T.);
#380=ADVANCED_FACE('',(#310,#311),#22,.T.);
#381=ADVANCED_FACE('',(#312,#313,#314,#315,#316,#317),#40,.T.);
#382=ADVANCED_FACE('',(#318,#319),#20,.T.);
#383=ADVANCED_FACE('',(#320,#321),#23,.T.);
#384=ADVANCED_FACE('',(#322,#323),#21,.T.);
#385=ADVANCED_FACE('',(#324,#325,#326,#327,#328,#329),#41,.T.);
#386=ADVANCED_FACE('',(#330,#331),#24,.T.);
#387=ADVANCED_FACE('',(#332,#333),#25,.F.);
#388=ADVANCED_FACE('',(#334,#335),#42,.T.);
#389=ADVANCED_FACE('',(#336,#337),#26,.F.);
#390=ADVANCED_FACE('',(#338,#339),#27,.F.);
#391=ADVANCED_FACE('',(#340,#341),#43,.T.);
#392=ADVANCED_FACE('',(#342,#343),#28,.F.);
#393=ADVANCED_FACE('',(#344,#345),#29,.F.);
#394=ADVANCED_FACE('',(#346,#347),#44,.T.);
#395=ADVANCED_FACE('',(#348,#349),#30,.F.);
#396=ADVANCED_FACE('',(#350,#351),#31,.F.);
#397=ADVANCED_FACE('',(#352,#353),#45,.T.);
#398=ADVANCED_FACE('',(#354,#355),#32,.F.);
#399=ADVANCED_FACE('',(#356,#357),#46,.T.);
#400=ADVANCED_FACE('',(#358,#359),#33,.F.);
#401=ADVANCED_FACE('',(#360,#361),#34,.F.);
#402=ADVANCED_FACE('',(#362,#363),#47,.T.);
#403=ADVANCED_FACE('',(#364,#365),#35,.F.);
#404=ADVANCED_FACE('',(#366,#367),#36,.F.);
#405=ADVANCED_FACE('',(#368,#369),#48,.T.);
#406=ADVANCED_FACE('',(#370,#371),#37,.F.);
#407=ADVANCED_FACE('',(#372,#373),#49,.T.);
#408=CLOSED_SHELL('',(#376,#377,#378,#379,#380,#381,#382,#383,#384,#385,
#386,#387,#388,#389,#390,#391,#392,#393,#394,#395,#396,#397,#398,#399,#400,
#401,#402,#403,#404,#405,#406,#407));
#409=STYLED_ITEM('',(#410),#417);
#410=PRESENTATION_STYLE_ASSIGNMENT((#411));
#411=SURFACE_STYLE_USAGE(.BOTH.,#412);
#412=SURFACE_SIDE_STYLE('',(#413));
#413=SURFACE_STYLE_FILL_AREA(#414);
#414=FILL_AREA_STYLE('',(#415));
#415=FILL_AREA_STYLE_COLOUR('',#416);
#416=COLOUR_RGB('',0.689999997615814,0.689999997615814,0.689999997615814);
#417=MANIFOLD_SOLID_BREP('LMFP6LUU',#408);
#418=SHAPE_DEFINITION_REPRESENTATION(#738,#419);
#419=SHAPE_REPRESENTATION('LMFP6LUU',(#420),#733);
#420=AXIS2_PLACEMENT_3D('',#627,#489,#490);
#421=AXIS2_PLACEMENT_3D('',#628,#491,#492);
#422=AXIS2_PLACEMENT_3D('',#629,#493,#494);
#423=AXIS2_PLACEMENT_3D('',#631,#495,#496);
#424=AXIS2_PLACEMENT_3D('',#633,#497,#498);
#425=AXIS2_PLACEMENT_3D('',#634,#499,#500);
#426=AXIS2_PLACEMENT_3D('',#636,#501,#502);
#427=AXIS2_PLACEMENT_3D('',#637,#503,#504);
#428=AXIS2_PLACEMENT_3D('',#639,#505,#506);
#429=AXIS2_PLACEMENT_3D('',#641,#507,#508);
#430=AXIS2_PLACEMENT_3D('',#642,#509,#510);
#431=AXIS2_PLACEMENT_3D('',#644,#511,#512);
#432=AXIS2_PLACEMENT_3D('',#645,#513,#514);
#433=AXIS2_PLACEMENT_3D('',#647,#515,#516);
#434=AXIS2_PLACEMENT_3D('',#648,#517,#518);
#435=AXIS2_PLACEMENT_3D('',#650,#519,#520);
#436=AXIS2_PLACEMENT_3D('',#652,#521,#522);
#437=AXIS2_PLACEMENT_3D('',#654,#523,#524);
#438=AXIS2_PLACEMENT_3D('',#656,#525,#526);
#439=AXIS2_PLACEMENT_3D('',#658,#527,#528);
#440=AXIS2_PLACEMENT_3D('',#659,#529,#530);
#441=AXIS2_PLACEMENT_3D('',#661,#531,#532);
#442=AXIS2_PLACEMENT_3D('',#662,#533,#534);
#443=AXIS2_PLACEMENT_3D('',#664,#535,#536);
#444=AXIS2_PLACEMENT_3D('',#665,#537,#538);
#445=AXIS2_PLACEMENT_3D('',#667,#539,#540);
#446=AXIS2_PLACEMENT_3D('',#668,#541,#542);
#447=AXIS2_PLACEMENT_3D('',#670,#543,#544);
#448=AXIS2_PLACEMENT_3D('',#672,#545,#546);
#449=AXIS2_PLACEMENT_3D('',#674,#547,#548);
#450=AXIS2_PLACEMENT_3D('',#676,#549,#550);
#451=AXIS2_PLACEMENT_3D('',#678,#551,#552);
#452=AXIS2_PLACEMENT_3D('',#679,#553,#554);
#453=AXIS2_PLACEMENT_3D('',#680,#555,#556);
#454=AXIS2_PLACEMENT_3D('',#682,#557,#558);
#455=AXIS2_PLACEMENT_3D('',#683,#559,#560);
#456=AXIS2_PLACEMENT_3D('',#685,#561,#562);
#457=AXIS2_PLACEMENT_3D('',#686,#563,#564);
#458=AXIS2_PLACEMENT_3D('',#687,#565,#566);
#459=AXIS2_PLACEMENT_3D('',#689,#567,#568);
#460=AXIS2_PLACEMENT_3D('',#690,#569,#570);
#461=AXIS2_PLACEMENT_3D('',#692,#571,#572);
#462=AXIS2_PLACEMENT_3D('',#693,#573,#574);
#463=AXIS2_PLACEMENT_3D('',#694,#575,#576);
#464=AXIS2_PLACEMENT_3D('',#696,#577,#578);
#465=AXIS2_PLACEMENT_3D('',#697,#579,#580);
#466=AXIS2_PLACEMENT_3D('',#699,#581,#582);
#467=AXIS2_PLACEMENT_3D('',#700,#583,#584);
#468=AXIS2_PLACEMENT_3D('',#701,#585,#586);
#469=AXIS2_PLACEMENT_3D('',#703,#587,#588);
#470=AXIS2_PLACEMENT_3D('',#704,#589,#590);
#471=AXIS2_PLACEMENT_3D('',#706,#591,#592);
#472=AXIS2_PLACEMENT_3D('',#707,#593,#594);
#473=AXIS2_PLACEMENT_3D('',#708,#595,#596);
#474=AXIS2_PLACEMENT_3D('',#710,#597,#598);
#475=AXIS2_PLACEMENT_3D('',#712,#599,#600);
#476=AXIS2_PLACEMENT_3D('',#713,#601,#602);
#477=AXIS2_PLACEMENT_3D('',#714,#603,#604);
#478=AXIS2_PLACEMENT_3D('',#716,#605,#606);
#479=AXIS2_PLACEMENT_3D('',#717,#607,#608);
#480=AXIS2_PLACEMENT_3D('',#719,#609,#610);
#481=AXIS2_PLACEMENT_3D('',#720,#611,#612);
#482=AXIS2_PLACEMENT_3D('',#722,#613,#614);
#483=AXIS2_PLACEMENT_3D('',#723,#615,#616);
#484=AXIS2_PLACEMENT_3D('',#725,#617,#618);
#485=AXIS2_PLACEMENT_3D('',#726,#619,#620);
#486=AXIS2_PLACEMENT_3D('',#728,#621,#622);
#487=AXIS2_PLACEMENT_3D('',#729,#623,#624);
#488=AXIS2_PLACEMENT_3D('',#731,#625,#626);
#489=DIRECTION('',(0.,0.,1.));
#490=DIRECTION('',(1.,0.,0.));
#491=DIRECTION('',(0.,0.,-1.));
#492=DIRECTION('',(-1.,0.,0.));
#493=DIRECTION('',(0.,0.,-1.));
#494=DIRECTION('',(-1.,0.,0.));
#495=DIRECTION('',(0.,0.,-1.));
#496=DIRECTION('',(-1.,0.,0.));
#497=DIRECTION('',(0.,0.,1.));
#498=DIRECTION('',(1.,0.,0.));
#499=DIRECTION('',(0.,0.,-1.));
#500=DIRECTION('',(-1.,0.,0.));
#501=DIRECTION('',(0.,0.,-1.));
#502=DIRECTION('',(-1.,0.,0.));
#503=DIRECTION('',(0.,0.,-1.));
#504=DIRECTION('',(-1.,0.,0.));
#505=DIRECTION('',(0.,0.,-1.));
#506=DIRECTION('',(-1.,0.,0.));
#507=DIRECTION('',(0.,0.,-1.));
#508=DIRECTION('',(-1.,0.,0.));
#509=DIRECTION('',(0.,0.,-1.));
#510=DIRECTION('',(-1.,0.,0.));
#511=DIRECTION('',(0.,0.,-1.));
#512=DIRECTION('',(-1.,0.,0.));
#513=DIRECTION('',(0.,0.,-1.));
#514=DIRECTION('',(-1.,0.,0.));
#515=DIRECTION('',(0.,0.,-1.));
#516=DIRECTION('',(-1.,0.,0.));
#517=DIRECTION('',(0.,0.,-1.));
#518=DIRECTION('',(-1.,0.,0.));
#519=DIRECTION('',(0.,0.,-1.));
#520=DIRECTION('',(-1.,0.,0.));
#521=DIRECTION('',(0.,0.,-1.));
#522=DIRECTION('',(-1.,0.,0.));
#523=DIRECTION('',(0.,0.,-1.));
#524=DIRECTION('',(-1.,0.,0.));
#525=DIRECTION('',(0.,0.,-1.));
#526=DIRECTION('',(-1.,0.,0.));
#527=DIRECTION('',(0.,0.,1.));
#528=DIRECTION('',(1.,0.,0.));
#529=DIRECTION('',(0.,0.,-1.));
#530=DIRECTION('',(-1.,0.,0.));
#531=DIRECTION('',(0.,0.,-1.));
#532=DIRECTION('',(-1.,0.,0.));
#533=DIRECTION('',(0.,0.,-1.));
#534=DIRECTION('',(-1.,0.,0.));
#535=DIRECTION('',(0.,0.,-1.));
#536=DIRECTION('',(-1.,0.,0.));
#537=DIRECTION('',(0.,0.,-1.));
#538=DIRECTION('',(-1.,0.,0.));
#539=DIRECTION('',(0.,0.,1.));
#540=DIRECTION('',(1.,0.,0.));
#541=DIRECTION('',(0.,0.,-1.));
#542=DIRECTION('',(-1.,0.,0.));
#543=DIRECTION('',(0.,0.,1.));
#544=DIRECTION('',(1.,0.,0.));
#545=DIRECTION('',(0.,0.,-1.));
#546=DIRECTION('',(-1.,0.,0.));
#547=DIRECTION('',(0.,0.,-1.));
#548=DIRECTION('',(-1.,0.,0.));
#549=DIRECTION('',(0.,0.,-1.));
#550=DIRECTION('',(-1.,0.,0.));
#551=DIRECTION('',(0.,0.,-1.));
#552=DIRECTION('',(-1.,0.,0.));
#553=DIRECTION('',(0.,0.,-1.));
#554=DIRECTION('',(-1.,0.,0.));
#555=DIRECTION('',(0.,0.,-1.));
#556=DIRECTION('',(-1.,0.,0.));
#557=DIRECTION('',(0.,0.,-1.));
#558=DIRECTION('',(-1.,0.,0.));
#559=DIRECTION('',(0.,0.,-1.));
#560=DIRECTION('',(-1.,0.,0.));
#561=DIRECTION('',(0.,0.,-1.));
#562=DIRECTION('',(-1.,0.,0.));
#563=DIRECTION('',(0.,0.,-1.));
#564=DIRECTION('',(-1.,0.,0.));
#565=DIRECTION('',(0.,0.,-1.));
#566=DIRECTION('',(-1.,0.,0.));
#567=DIRECTION('',(0.,0.,-1.));
#568=DIRECTION('',(-1.,0.,0.));
#569=DIRECTION('',(0.,0.,-1.));
#570=DIRECTION('',(-1.,0.,0.));
#571=DIRECTION('',(0.,0.,-1.));
#572=DIRECTION('',(-1.,0.,0.));
#573=DIRECTION('',(0.,0.,-1.));
#574=DIRECTION('',(-1.,0.,0.));
#575=DIRECTION('',(0.,0.,-1.));
#576=DIRECTION('',(-1.,0.,0.));
#577=DIRECTION('',(0.,0.,-1.));
#578=DIRECTION('',(-1.,0.,0.));
#579=DIRECTION('',(0.,0.,-1.));
#580=DIRECTION('',(-1.,0.,0.));
#581=DIRECTION('',(0.,0.,-1.));
#582=DIRECTION('',(-1.,0.,0.));
#583=DIRECTION('',(0.,0.,-1.));
#584=DIRECTION('',(-1.,0.,0.));
#585=DIRECTION('',(0.,0.,-1.));
#586=DIRECTION('',(-1.,0.,0.));
#587=DIRECTION('',(0.,0.,-1.));
#588=DIRECTION('',(-1.,0.,0.));
#589=DIRECTION('',(0.,0.,-1.));
#590=DIRECTION('',(-1.,0.,0.));
#591=DIRECTION('',(0.,0.,-1.));
#592=DIRECTION('',(-1.,0.,0.));
#593=DIRECTION('',(0.,0.,1.));
#594=DIRECTION('',(1.,0.,0.));
#595=DIRECTION('',(0.,0.,-1.));
#596=DIRECTION('',(-1.,0.,0.));
#597=DIRECTION('',(0.,0.,-1.));
#598=DIRECTION('',(-1.,0.,0.));
#599=DIRECTION('',(0.,0.,-1.));
#600=DIRECTION('',(-1.,0.,0.));
#601=DIRECTION('',(0.,0.,-1.));
#602=DIRECTION('',(-1.,0.,0.));
#603=DIRECTION('',(0.,0.,-1.));
#604=DIRECTION('',(-1.,0.,0.));
#605=DIRECTION('',(0.,0.,-1.));
#606=DIRECTION('',(-1.,0.,0.));
#607=DIRECTION('',(0.,0.,-1.));
#608=DIRECTION('',(-1.,0.,0.));
#609=DIRECTION('',(0.,0.,-1.));
#610=DIRECTION('',(-1.,0.,0.));
#611=DIRECTION('',(0.,0.,-1.));
#612=DIRECTION('',(-1.,0.,0.));
#613=DIRECTION('',(0.,0.,-1.));
#614=DIRECTION('',(-1.,0.,0.));
#615=DIRECTION('',(0.,0.,-1.));
#616=DIRECTION('',(-1.,0.,0.));
#617=DIRECTION('',(0.,0.,-1.));
#618=DIRECTION('',(-1.,0.,0.));
#619=DIRECTION('',(0.,0.,-1.));
#620=DIRECTION('',(-1.,0.,0.));
#621=DIRECTION('',(0.,0.,-1.));
#622=DIRECTION('',(-1.,0.,0.));
#623=DIRECTION('',(0.,0.,-1.));
#624=DIRECTION('',(-1.,0.,0.));
#625=DIRECTION('',(0.,0.,1.));
#626=DIRECTION('',(1.,0.,0.));
#627=CARTESIAN_POINT('',(0.,0.,0.));
#628=CARTESIAN_POINT('',(0.,0.,34.5));
#629=CARTESIAN_POINT('',(0.,0.,35.));
#630=CARTESIAN_POINT('',(-5.5,0.,35.));
#631=CARTESIAN_POINT('',(0.,0.,34.5));
#632=CARTESIAN_POINT('',(-6.,0.,34.5));
#633=CARTESIAN_POINT('',(0.,5.5,35.));
#634=CARTESIAN_POINT('',(0.,4.44089209850063E-16,35.));
#635=CARTESIAN_POINT('',(-3.2,4.44089209850063E-16,35.));
#636=CARTESIAN_POINT('',(0.,3.,0.));
#637=CARTESIAN_POINT('',(0.,0.,0.));
#638=CARTESIAN_POINT('',(-5.5,0.,0.));
#639=CARTESIAN_POINT('',(0.,4.44089209850063E-16,0.));
#640=CARTESIAN_POINT('',(-3.2,4.44089209850063E-16,0.));
#641=CARTESIAN_POINT('',(0.,0.,0.5));
#642=CARTESIAN_POINT('',(0.,0.,0.5));
#643=CARTESIAN_POINT('',(-6.,0.,0.5));
#644=CARTESIAN_POINT('',(0.,0.,0.));
#645=CARTESIAN_POINT('',(0.,0.,25.));
#646=CARTESIAN_POINT('',(-6.,0.,25.));
#647=CARTESIAN_POINT('',(0.,6.,25.));
#648=CARTESIAN_POINT('',(0.,0.,25.));
#649=CARTESIAN_POINT('',(-13.6464466094067,0.,25.));
#650=CARTESIAN_POINT('',(0.,10.,25.));
#651=CARTESIAN_POINT('',(-3.,10.,25.));
#652=CARTESIAN_POINT('',(-10.,0.,25.));
#653=CARTESIAN_POINT('',(-13.,0.,25.));
#654=CARTESIAN_POINT('',(0.,-10.,25.));
#655=CARTESIAN_POINT('',(-3.,-10.,25.));
#656=CARTESIAN_POINT('',(10.,0.,25.));
#657=CARTESIAN_POINT('',(7.,0.,25.));
#658=CARTESIAN_POINT('',(0.,0.,25.));
#659=CARTESIAN_POINT('',(0.,0.,25.3535533905933));
#660=CARTESIAN_POINT('',(-14.,0.,25.3535533905933));
#661=CARTESIAN_POINT('',(0.,0.,0.));
#662=CARTESIAN_POINT('',(0.,0.,29.6464466094067));
#663=CARTESIAN_POINT('',(-14.,0.,29.6464466094067));
#664=CARTESIAN_POINT('',(0.,0.,29.6464466094067));
#665=CARTESIAN_POINT('',(0.,0.,30.));
#666=CARTESIAN_POINT('',(-13.6464466094067,0.,30.));
#667=CARTESIAN_POINT('',(0.,13.6464466094067,30.));
#668=CARTESIAN_POINT('',(0.,0.,30.));
#669=CARTESIAN_POINT('',(-6.,0.,30.));
#670=CARTESIAN_POINT('',(0.,10.,30.));
#671=CARTESIAN_POINT('',(1.75000000000006,10.,30.));
#672=CARTESIAN_POINT('',(-10.,0.,30.));
#673=CARTESIAN_POINT('',(-11.7500000000001,0.,30.));
#674=CARTESIAN_POINT('',(0.,-10.,30.));
#675=CARTESIAN_POINT('',(-1.75000000000006,-10.,30.));
#676=CARTESIAN_POINT('',(10.,0.,30.));
#677=CARTESIAN_POINT('',(8.24999999999994,0.,30.));
#678=CARTESIAN_POINT('',(0.,0.,0.));
#679=CARTESIAN_POINT('',(0.,10.,-500.));
#680=CARTESIAN_POINT('',(0.,10.,28.1));
#681=CARTESIAN_POINT('',(-1.75000000000006,10.,28.1));
#682=CARTESIAN_POINT('',(0.,11.7500000000001,28.1));
#683=CARTESIAN_POINT('',(0.,10.,28.1));
#684=CARTESIAN_POINT('',(-3.,10.,28.1));
#685=CARTESIAN_POINT('',(0.,10.,-500.));
#686=CARTESIAN_POINT('',(10.,0.,-500.));
#687=CARTESIAN_POINT('',(10.,0.,28.1));
#688=CARTESIAN_POINT('',(8.24999999999994,0.,28.1));
#689=CARTESIAN_POINT('',(10.,1.75000000000006,28.1));
#690=CARTESIAN_POINT('',(10.,0.,28.1));
#691=CARTESIAN_POINT('',(7.,0.,28.1));
#692=CARTESIAN_POINT('',(10.,0.,-500.));
#693=CARTESIAN_POINT('',(0.,-10.,-500.));
#694=CARTESIAN_POINT('',(0.,-10.,28.1));
#695=CARTESIAN_POINT('',(-1.75000000000006,-10.,28.1));
#696=CARTESIAN_POINT('',(0.,-8.24999999999994,28.1));
#697=CARTESIAN_POINT('',(0.,-10.,28.1));
#698=CARTESIAN_POINT('',(-3.,-10.,28.1));
#699=CARTESIAN_POINT('',(0.,-10.,-500.));
#700=CARTESIAN_POINT('',(-10.,0.,-500.));
#701=CARTESIAN_POINT('',(-10.,0.,28.1));
#702=CARTESIAN_POINT('',(-11.7500000000001,0.,28.1));
#703=CARTESIAN_POINT('',(-10.,1.75000000000006,28.1));
#704=CARTESIAN_POINT('',(-10.,0.,28.1));
#705=CARTESIAN_POINT('',(-13.,0.,28.1));
#706=CARTESIAN_POINT('',(-10.,0.,-500.));
#707=CARTESIAN_POINT('',(0.,3.4,0.5));
#708=CARTESIAN_POINT('',(0.,4.44089209850063E-16,0.5));
#709=CARTESIAN_POINT('',(-3.2,4.44089209850063E-16,0.5));
#710=CARTESIAN_POINT('',(0.,4.44089209850063E-16,0.5));
#711=CARTESIAN_POINT('',(-3.4,4.44089209850063E-16,0.5));
#712=CARTESIAN_POINT('',(0.,4.44089209850063E-16,0.));
#713=CARTESIAN_POINT('',(0.,4.44089209850063E-16,0.));
#714=CARTESIAN_POINT('',(0.,4.44089209850063E-16,0.800000000000001));
#715=CARTESIAN_POINT('',(-3.4,4.44089209850063E-16,0.800000000000001));
#716=CARTESIAN_POINT('',(0.,3.,0.800000000000001));
#717=CARTESIAN_POINT('',(0.,4.44089209850063E-16,0.800000000000002));
#718=CARTESIAN_POINT('',(-3.,4.44089209850063E-16,0.800000000000002));
#719=CARTESIAN_POINT('',(0.,0.,0.));
#720=CARTESIAN_POINT('',(0.,4.44089209850063E-16,34.2));
#721=CARTESIAN_POINT('',(-3.,4.44089209850063E-16,34.2));
#722=CARTESIAN_POINT('',(0.,4.44089209850063E-16,0.));
#723=CARTESIAN_POINT('',(0.,4.44089209850063E-16,34.5));
#724=CARTESIAN_POINT('',(-3.2,4.44089209850063E-16,34.5));
#725=CARTESIAN_POINT('',(0.,3.2,34.5));
#726=CARTESIAN_POINT('',(0.,4.44089209850063E-16,34.5));
#727=CARTESIAN_POINT('',(-3.4,4.44089209850063E-16,34.5));
#728=CARTESIAN_POINT('',(0.,4.44089209850063E-16,0.));
#729=CARTESIAN_POINT('',(0.,4.44089209850063E-16,34.2));
#730=CARTESIAN_POINT('',(-3.4,4.44089209850063E-16,34.2));
#731=CARTESIAN_POINT('',(0.,3.4,34.2));
#732=MECHANICAL_DESIGN_GEOMETRIC_PRESENTATION_REPRESENTATION('',(#409),
#733);
#733=(
GEOMETRIC_REPRESENTATION_CONTEXT(3)
GLOBAL_UNCERTAINTY_ASSIGNED_CONTEXT((#734))
GLOBAL_UNIT_ASSIGNED_CONTEXT((#737,#736,#735))
REPRESENTATION_CONTEXT('LMFP6LUU','TOP_LEVEL_ASSEMBLY_PART')
);
#734=UNCERTAINTY_MEASURE_WITH_UNIT(LENGTH_MEASURE(0.005),#737,
'DISTANCE_ACCURACY_VALUE','Maximum Tolerance applied to model');
#735=(
NAMED_UNIT(*)
SI_UNIT($,.STERADIAN.)
SOLID_ANGLE_UNIT()
);
#736=(
NAMED_UNIT(*)
PLANE_ANGLE_UNIT()
SI_UNIT($,.RADIAN.)
);
#737=(
LENGTH_UNIT()
NAMED_UNIT(*)
SI_UNIT(.MILLI.,.METRE.)
);
#738=PRODUCT_DEFINITION_SHAPE('','',#739);
#739=PRODUCT_DEFINITION('','',#741,#740);
#740=DESIGN_CONTEXT('',#747,'design');
#741=PRODUCT_DEFINITION_FORMATION_WITH_SPECIFIED_SOURCE('','',#743,
 .NOT_KNOWN.);
#742=PRODUCT_RELATED_PRODUCT_CATEGORY('','',(#743));
#743=PRODUCT('LMFP6LUU','LMFP6LUU','LMFP6LUU',(#745));
#744=PRODUCT_CATEGORY('','');
#745=MECHANICAL_CONTEXT('',#747,'mechanical');
#746=APPLICATION_PROTOCOL_DEFINITION('international standard',
'config_control_design',2010,#747);
#747=APPLICATION_CONTEXT(
'configuration controlled 3D designs of mechanical parts and assemblie
s');
ENDSEC;
END-ISO-10303-21;
