ISO-10303-21;
HEADER;
/* Generated by software containing ST-Developer
 * from STEP Tools, Inc. (www.steptools.com) 
 */
/* OPTION: using custom renumber hook */

FILE_DESCRIPTION(
/* description */ ('STEP AP203'),
/* implementation_level */ '2;1');

FILE_NAME(
/* name */ 'LMFM12LUU',
/* time_stamp */ '2022-08-17T04:45:44+02:00',
/* author */ ('License CC BY-ND 4.0'),
/* organization */ ('CADENAS'),
/* preprocessor_version */ 'ST-DEVELOPER v18.102',
/* originating_system */ 'PARTsolutions',
/* authorisation */ '  ');

FILE_SCHEMA (('CONFIG_CONTROL_DESIGN'));
ENDSEC;

DATA;
#10=PROPERTY_DEFINITION_REPRESENTATION(#14,#12);
#11=PROPERTY_DEFINITION_REPRESENTATION(#15,#13);
#12=REPRESENTATION('',(#16),#733);
#13=REPRESENTATION('',(#17),#733);
#14=PROPERTY_DEFINITION('pmi validation property','',#738);
#15=PROPERTY_DEFINITION('pmi validation property','',#738);
#16=VALUE_REPRESENTATION_ITEM('number of annotations',COUNT_MEASURE(0.));
#17=VALUE_REPRESENTATION_ITEM('number of views',COUNT_MEASURE(0.));
#18=SHAPE_REPRESENTATION_RELATIONSHIP('','',#419,#19);
#19=ADVANCED_BREP_SHAPE_REPRESENTATION('',(#417),#733);
#20=CONICAL_SURFACE('',#470,20.7,0.785398163397451);
#21=CONICAL_SURFACE('',#471,21.,0.785398163397451);
#22=CYLINDRICAL_SURFACE('',#426,10.4999999999999);
#23=CYLINDRICAL_SURFACE('',#428,21.);
#24=CYLINDRICAL_SURFACE('',#449,10.4999999999999);
#25=CYLINDRICAL_SURFACE('',#450,3.75);
#26=CYLINDRICAL_SURFACE('',#454,2.25);
#27=CYLINDRICAL_SURFACE('',#455,3.75);
#28=CYLINDRICAL_SURFACE('',#459,2.25);
#29=CYLINDRICAL_SURFACE('',#460,3.75);
#30=CYLINDRICAL_SURFACE('',#464,2.25);
#31=CYLINDRICAL_SURFACE('',#465,3.75);
#32=CYLINDRICAL_SURFACE('',#469,2.25);
#33=CYLINDRICAL_SURFACE('',#472,6.8);
#34=CYLINDRICAL_SURFACE('',#479,6.4);
#35=CYLINDRICAL_SURFACE('',#480,6.4);
#36=CYLINDRICAL_SURFACE('',#484,6.8);
#37=CYLINDRICAL_SURFACE('',#488,6.);
#38=TOROIDAL_SURFACE('',#424,9.89999999999988,0.600000000000007);
#39=TOROIDAL_SURFACE('',#447,9.89999999999983,0.600000000000005);
#40=ORIENTED_EDGE('',*,*,#112,.T.);
#41=ORIENTED_EDGE('',*,*,#113,.F.);
#42=ORIENTED_EDGE('',*,*,#113,.T.);
#43=ORIENTED_EDGE('',*,*,#114,.F.);
#44=ORIENTED_EDGE('',*,*,#115,.T.);
#45=ORIENTED_EDGE('',*,*,#114,.T.);
#46=ORIENTED_EDGE('',*,*,#116,.T.);
#47=ORIENTED_EDGE('',*,*,#117,.T.);
#48=ORIENTED_EDGE('',*,*,#118,.T.);
#49=ORIENTED_EDGE('',*,*,#119,.T.);
#50=ORIENTED_EDGE('',*,*,#120,.T.);
#51=ORIENTED_EDGE('',*,*,#121,.T.);
#52=ORIENTED_EDGE('',*,*,#122,.T.);
#53=ORIENTED_EDGE('',*,*,#115,.F.);
#54=ORIENTED_EDGE('',*,*,#123,.T.);
#55=ORIENTED_EDGE('',*,*,#124,.F.);
#56=ORIENTED_EDGE('',*,*,#125,.F.);
#57=ORIENTED_EDGE('',*,*,#126,.F.);
#58=ORIENTED_EDGE('',*,*,#127,.F.);
#59=ORIENTED_EDGE('',*,*,#128,.T.);
#60=ORIENTED_EDGE('',*,*,#129,.F.);
#61=ORIENTED_EDGE('',*,*,#130,.T.);
#62=ORIENTED_EDGE('',*,*,#131,.T.);
#63=ORIENTED_EDGE('',*,*,#130,.F.);
#64=ORIENTED_EDGE('',*,*,#131,.F.);
#65=ORIENTED_EDGE('',*,*,#128,.F.);
#66=ORIENTED_EDGE('',*,*,#132,.T.);
#67=ORIENTED_EDGE('',*,*,#122,.F.);
#68=ORIENTED_EDGE('',*,*,#133,.T.);
#69=ORIENTED_EDGE('',*,*,#132,.F.);
#70=ORIENTED_EDGE('',*,*,#127,.T.);
#71=ORIENTED_EDGE('',*,*,#133,.F.);
#72=ORIENTED_EDGE('',*,*,#134,.T.);
#73=ORIENTED_EDGE('',*,*,#121,.F.);
#74=ORIENTED_EDGE('',*,*,#135,.T.);
#75=ORIENTED_EDGE('',*,*,#134,.F.);
#76=ORIENTED_EDGE('',*,*,#126,.T.);
#77=ORIENTED_EDGE('',*,*,#135,.F.);
#78=ORIENTED_EDGE('',*,*,#136,.T.);
#79=ORIENTED_EDGE('',*,*,#120,.F.);
#80=ORIENTED_EDGE('',*,*,#137,.T.);
#81=ORIENTED_EDGE('',*,*,#136,.F.);
#82=ORIENTED_EDGE('',*,*,#125,.T.);
#83=ORIENTED_EDGE('',*,*,#137,.F.);
#84=ORIENTED_EDGE('',*,*,#138,.T.);
#85=ORIENTED_EDGE('',*,*,#119,.F.);
#86=ORIENTED_EDGE('',*,*,#139,.T.);
#87=ORIENTED_EDGE('',*,*,#138,.F.);
#88=ORIENTED_EDGE('',*,*,#124,.T.);
#89=ORIENTED_EDGE('',*,*,#139,.F.);
#90=ORIENTED_EDGE('',*,*,#117,.F.);
#91=ORIENTED_EDGE('',*,*,#118,.F.);
#92=ORIENTED_EDGE('',*,*,#123,.F.);
#93=ORIENTED_EDGE('',*,*,#116,.F.);
#94=ORIENTED_EDGE('',*,*,#140,.T.);
#95=ORIENTED_EDGE('',*,*,#141,.F.);
#96=ORIENTED_EDGE('',*,*,#141,.T.);
#97=ORIENTED_EDGE('',*,*,#142,.F.);
#98=ORIENTED_EDGE('',*,*,#143,.T.);
#99=ORIENTED_EDGE('',*,*,#140,.F.);
#100=ORIENTED_EDGE('',*,*,#129,.T.);
#101=ORIENTED_EDGE('',*,*,#143,.F.);
#102=ORIENTED_EDGE('',*,*,#144,.T.);
#103=ORIENTED_EDGE('',*,*,#112,.F.);
#104=ORIENTED_EDGE('',*,*,#145,.T.);
#105=ORIENTED_EDGE('',*,*,#144,.F.);
#106=ORIENTED_EDGE('',*,*,#146,.T.);
#107=ORIENTED_EDGE('',*,*,#145,.F.);
#108=ORIENTED_EDGE('',*,*,#147,.T.);
#109=ORIENTED_EDGE('',*,*,#146,.F.);
#110=ORIENTED_EDGE('',*,*,#142,.T.);
#111=ORIENTED_EDGE('',*,*,#147,.F.);
#112=EDGE_CURVE('',#148,#148,#184,.T.);
#113=EDGE_CURVE('',#149,#149,#185,.T.);
#114=EDGE_CURVE('',#150,#150,#186,.T.);
#115=EDGE_CURVE('',#151,#151,#187,.T.);
#116=EDGE_CURVE('',#152,#152,#188,.T.);
#117=EDGE_CURVE('',#153,#153,#189,.F.);
#118=EDGE_CURVE('',#154,#154,#190,.T.);
#119=EDGE_CURVE('',#155,#155,#191,.T.);
#120=EDGE_CURVE('',#156,#156,#192,.T.);
#121=EDGE_CURVE('',#157,#157,#193,.T.);
#122=EDGE_CURVE('',#158,#158,#194,.T.);
#123=EDGE_CURVE('',#159,#159,#195,.F.);
#124=EDGE_CURVE('',#160,#160,#196,.T.);
#125=EDGE_CURVE('',#161,#161,#197,.T.);
#126=EDGE_CURVE('',#162,#162,#198,.T.);
#127=EDGE_CURVE('',#163,#163,#199,.T.);
#128=EDGE_CURVE('',#164,#164,#200,.T.);
#129=EDGE_CURVE('',#165,#165,#201,.T.);
#130=EDGE_CURVE('',#166,#166,#202,.T.);
#131=EDGE_CURVE('',#167,#167,#203,.T.);
#132=EDGE_CURVE('',#168,#168,#204,.T.);
#133=EDGE_CURVE('',#169,#169,#205,.T.);
#134=EDGE_CURVE('',#170,#170,#206,.T.);
#135=EDGE_CURVE('',#171,#171,#207,.T.);
#136=EDGE_CURVE('',#172,#172,#208,.T.);
#137=EDGE_CURVE('',#173,#173,#209,.T.);
#138=EDGE_CURVE('',#174,#174,#210,.T.);
#139=EDGE_CURVE('',#175,#175,#211,.T.);
#140=EDGE_CURVE('',#176,#176,#212,.T.);
#141=EDGE_CURVE('',#177,#177,#213,.T.);
#142=EDGE_CURVE('',#178,#178,#214,.T.);
#143=EDGE_CURVE('',#179,#179,#215,.T.);
#144=EDGE_CURVE('',#180,#180,#216,.T.);
#145=EDGE_CURVE('',#181,#181,#217,.T.);
#146=EDGE_CURVE('',#182,#182,#218,.T.);
#147=EDGE_CURVE('',#183,#183,#219,.T.);
#148=VERTEX_POINT('',#630);
#149=VERTEX_POINT('',#632);
#150=VERTEX_POINT('',#635);
#151=VERTEX_POINT('',#638);
#152=VERTEX_POINT('',#641);
#153=VERTEX_POINT('',#643);
#154=VERTEX_POINT('',#646);
#155=VERTEX_POINT('',#648);
#156=VERTEX_POINT('',#650);
#157=VERTEX_POINT('',#652);
#158=VERTEX_POINT('',#654);
#159=VERTEX_POINT('',#657);
#160=VERTEX_POINT('',#659);
#161=VERTEX_POINT('',#661);
#162=VERTEX_POINT('',#663);
#163=VERTEX_POINT('',#665);
#164=VERTEX_POINT('',#667);
#165=VERTEX_POINT('',#670);
#166=VERTEX_POINT('',#672);
#167=VERTEX_POINT('',#675);
#168=VERTEX_POINT('',#679);
#169=VERTEX_POINT('',#682);
#170=VERTEX_POINT('',#686);
#171=VERTEX_POINT('',#689);
#172=VERTEX_POINT('',#693);
#173=VERTEX_POINT('',#696);
#174=VERTEX_POINT('',#700);
#175=VERTEX_POINT('',#703);
#176=VERTEX_POINT('',#709);
#177=VERTEX_POINT('',#711);
#178=VERTEX_POINT('',#714);
#179=VERTEX_POINT('',#717);
#180=VERTEX_POINT('',#721);
#181=VERTEX_POINT('',#724);
#182=VERTEX_POINT('',#727);
#183=VERTEX_POINT('',#730);
#184=CIRCLE('',#422,6.4);
#185=CIRCLE('',#423,9.89999999999988);
#186=CIRCLE('',#425,10.4999999999999);
#187=CIRCLE('',#427,10.4999999999999);
#188=CIRCLE('',#429,21.);
#189=CIRCLE('',#430,21.);
#190=CIRCLE('',#432,20.7);
#191=CIRCLE('',#433,3.75);
#192=CIRCLE('',#434,3.75);
#193=CIRCLE('',#435,3.75);
#194=CIRCLE('',#436,3.75);
#195=CIRCLE('',#438,20.7);
#196=CIRCLE('',#439,2.25);
#197=CIRCLE('',#440,2.25);
#198=CIRCLE('',#441,2.25);
#199=CIRCLE('',#442,2.25);
#200=CIRCLE('',#443,10.4999999999999);
#201=CIRCLE('',#445,6.4);
#202=CIRCLE('',#446,9.89999999999983);
#203=CIRCLE('',#448,10.4999999999998);
#204=CIRCLE('',#451,3.75);
#205=CIRCLE('',#453,2.25);
#206=CIRCLE('',#456,3.75);
#207=CIRCLE('',#458,2.25);
#208=CIRCLE('',#461,3.75);
#209=CIRCLE('',#463,2.25);
#210=CIRCLE('',#466,3.75);
#211=CIRCLE('',#468,2.25);
#212=CIRCLE('',#473,6.8);
#213=CIRCLE('',#474,6.8);
#214=CIRCLE('',#476,6.);
#215=CIRCLE('',#478,6.4);
#216=CIRCLE('',#481,6.4);
#217=CIRCLE('',#483,6.8);
#218=CIRCLE('',#485,6.8);
#219=CIRCLE('',#487,6.);
#220=EDGE_LOOP('',(#40));
#221=EDGE_LOOP('',(#41));
#222=EDGE_LOOP('',(#42));
#223=EDGE_LOOP('',(#43));
#224=EDGE_LOOP('',(#44));
#225=EDGE_LOOP('',(#45));
#226=EDGE_LOOP('',(#46));
#227=EDGE_LOOP('',(#47));
#228=EDGE_LOOP('',(#48));
#229=EDGE_LOOP('',(#49));
#230=EDGE_LOOP('',(#50));
#231=EDGE_LOOP('',(#51));
#232=EDGE_LOOP('',(#52));
#233=EDGE_LOOP('',(#53));
#234=EDGE_LOOP('',(#54));
#235=EDGE_LOOP('',(#55));
#236=EDGE_LOOP('',(#56));
#237=EDGE_LOOP('',(#57));
#238=EDGE_LOOP('',(#58));
#239=EDGE_LOOP('',(#59));
#240=EDGE_LOOP('',(#60));
#241=EDGE_LOOP('',(#61));
#242=EDGE_LOOP('',(#62));
#243=EDGE_LOOP('',(#63));
#244=EDGE_LOOP('',(#64));
#245=EDGE_LOOP('',(#65));
#246=EDGE_LOOP('',(#66));
#247=EDGE_LOOP('',(#67));
#248=EDGE_LOOP('',(#68));
#249=EDGE_LOOP('',(#69));
#250=EDGE_LOOP('',(#70));
#251=EDGE_LOOP('',(#71));
#252=EDGE_LOOP('',(#72));
#253=EDGE_LOOP('',(#73));
#254=EDGE_LOOP('',(#74));
#255=EDGE_LOOP('',(#75));
#256=EDGE_LOOP('',(#76));
#257=EDGE_LOOP('',(#77));
#258=EDGE_LOOP('',(#78));
#259=EDGE_LOOP('',(#79));
#260=EDGE_LOOP('',(#80));
#261=EDGE_LOOP('',(#81));
#262=EDGE_LOOP('',(#82));
#263=EDGE_LOOP('',(#83));
#264=EDGE_LOOP('',(#84));
#265=EDGE_LOOP('',(#85));
#266=EDGE_LOOP('',(#86));
#267=EDGE_LOOP('',(#87));
#268=EDGE_LOOP('',(#88));
#269=EDGE_LOOP('',(#89));
#270=EDGE_LOOP('',(#90));
#271=EDGE_LOOP('',(#91));
#272=EDGE_LOOP('',(#92));
#273=EDGE_LOOP('',(#93));
#274=EDGE_LOOP('',(#94));
#275=EDGE_LOOP('',(#95));
#276=EDGE_LOOP('',(#96));
#277=EDGE_LOOP('',(#97));
#278=EDGE_LOOP('',(#98));
#279=EDGE_LOOP('',(#99));
#280=EDGE_LOOP('',(#100));
#281=EDGE_LOOP('',(#101));
#282=EDGE_LOOP('',(#102));
#283=EDGE_LOOP('',(#103));
#284=EDGE_LOOP('',(#104));
#285=EDGE_LOOP('',(#105));
#286=EDGE_LOOP('',(#106));
#287=EDGE_LOOP('',(#107));
#288=EDGE_LOOP('',(#108));
#289=EDGE_LOOP('',(#109));
#290=EDGE_LOOP('',(#110));
#291=EDGE_LOOP('',(#111));
#292=FACE_BOUND('',#220,.T.);
#293=FACE_BOUND('',#221,.T.);
#294=FACE_BOUND('',#222,.T.);
#295=FACE_BOUND('',#223,.T.);
#296=FACE_BOUND('',#224,.T.);
#297=FACE_BOUND('',#225,.T.);
#298=FACE_BOUND('',#226,.T.);
#299=FACE_BOUND('',#227,.T.);
#300=FACE_BOUND('',#228,.T.);
#301=FACE_BOUND('',#229,.T.);
#302=FACE_BOUND('',#230,.T.);
#303=FACE_BOUND('',#231,.T.);
#304=FACE_BOUND('',#232,.T.);
#305=FACE_BOUND('',#233,.T.);
#306=FACE_BOUND('',#234,.T.);
#307=FACE_BOUND('',#235,.T.);
#308=FACE_BOUND('',#236,.T.);
#309=FACE_BOUND('',#237,.T.);
#310=FACE_BOUND('',#238,.T.);
#311=FACE_BOUND('',#239,.T.);
#312=FACE_BOUND('',#240,.T.);
#313=FACE_BOUND('',#241,.T.);
#314=FACE_BOUND('',#242,.T.);
#315=FACE_BOUND('',#243,.T.);
#316=FACE_BOUND('',#244,.T.);
#317=FACE_BOUND('',#245,.T.);
#318=FACE_BOUND('',#246,.T.);
#319=FACE_BOUND('',#247,.T.);
#320=FACE_BOUND('',#248,.T.);
#321=FACE_BOUND('',#249,.T.);
#322=FACE_BOUND('',#250,.T.);
#323=FACE_BOUND('',#251,.T.);
#324=FACE_BOUND('',#252,.T.);
#325=FACE_BOUND('',#253,.T.);
#326=FACE_BOUND('',#254,.T.);
#327=FACE_BOUND('',#255,.T.);
#328=FACE_BOUND('',#256,.T.);
#329=FACE_BOUND('',#257,.T.);
#330=FACE_BOUND('',#258,.T.);
#331=FACE_BOUND('',#259,.T.);
#332=FACE_BOUND('',#260,.T.);
#333=FACE_BOUND('',#261,.T.);
#334=FACE_BOUND('',#262,.T.);
#335=FACE_BOUND('',#263,.T.);
#336=FACE_BOUND('',#264,.T.);
#337=FACE_BOUND('',#265,.T.);
#338=FACE_BOUND('',#266,.T.);
#339=FACE_BOUND('',#267,.T.);
#340=FACE_BOUND('',#268,.T.);
#341=FACE_BOUND('',#269,.T.);
#342=FACE_BOUND('',#270,.T.);
#343=FACE_BOUND('',#271,.T.);
#344=FACE_BOUND('',#272,.T.);
#345=FACE_BOUND('',#273,.T.);
#346=FACE_BOUND('',#274,.T.);
#347=FACE_BOUND('',#275,.T.);
#348=FACE_BOUND('',#276,.T.);
#349=FACE_BOUND('',#277,.T.);
#350=FACE_BOUND('',#278,.T.);
#351=FACE_BOUND('',#279,.T.);
#352=FACE_BOUND('',#280,.T.);
#353=FACE_BOUND('',#281,.T.);
#354=FACE_BOUND('',#282,.T.);
#355=FACE_BOUND('',#283,.T.);
#356=FACE_BOUND('',#284,.T.);
#357=FACE_BOUND('',#285,.T.);
#358=FACE_BOUND('',#286,.T.);
#359=FACE_BOUND('',#287,.T.);
#360=FACE_BOUND('',#288,.T.);
#361=FACE_BOUND('',#289,.T.);
#362=FACE_BOUND('',#290,.T.);
#363=FACE_BOUND('',#291,.T.);
#364=PLANE('',#421);
#365=PLANE('',#431);
#366=PLANE('',#437);
#367=PLANE('',#444);
#368=PLANE('',#452);
#369=PLANE('',#457);
#370=PLANE('',#462);
#371=PLANE('',#467);
#372=PLANE('',#475);
#373=PLANE('',#477);
#374=PLANE('',#482);
#375=PLANE('',#486);
#376=ADVANCED_FACE('',(#292,#293),#364,.F.);
#377=ADVANCED_FACE('',(#294,#295),#38,.T.);
#378=ADVANCED_FACE('',(#296,#297),#22,.T.);
#379=ADVANCED_FACE('',(#298,#299),#23,.T.);
#380=ADVANCED_FACE('',(#300,#301,#302,#303,#304,#305),#365,.T.);
#381=ADVANCED_FACE('',(#306,#307,#308,#309,#310,#311),#366,.F.);
#382=ADVANCED_FACE('',(#312,#313),#367,.F.);
#383=ADVANCED_FACE('',(#314,#315),#39,.T.);
#384=ADVANCED_FACE('',(#316,#317),#24,.T.);
#385=ADVANCED_FACE('',(#318,#319),#25,.F.);
#386=ADVANCED_FACE('',(#320,#321),#368,.T.);
#387=ADVANCED_FACE('',(#322,#323),#26,.F.);
#388=ADVANCED_FACE('',(#324,#325),#27,.F.);
#389=ADVANCED_FACE('',(#326,#327),#369,.T.);
#390=ADVANCED_FACE('',(#328,#329),#28,.F.);
#391=ADVANCED_FACE('',(#330,#331),#29,.F.);
#392=ADVANCED_FACE('',(#332,#333),#370,.T.);
#393=ADVANCED_FACE('',(#334,#335),#30,.F.);
#394=ADVANCED_FACE('',(#336,#337),#31,.F.);
#395=ADVANCED_FACE('',(#338,#339),#371,.T.);
#396=ADVANCED_FACE('',(#340,#341),#32,.F.);
#397=ADVANCED_FACE('',(#342,#343),#20,.T.);
#398=ADVANCED_FACE('',(#344,#345),#21,.T.);
#399=ADVANCED_FACE('',(#346,#347),#33,.F.);
#400=ADVANCED_FACE('',(#348,#349),#372,.T.);
#401=ADVANCED_FACE('',(#350,#351),#373,.T.);
#402=ADVANCED_FACE('',(#352,#353),#34,.F.);
#403=ADVANCED_FACE('',(#354,#355),#35,.F.);
#404=ADVANCED_FACE('',(#356,#357),#374,.T.);
#405=ADVANCED_FACE('',(#358,#359),#36,.F.);
#406=ADVANCED_FACE('',(#360,#361),#375,.T.);
#407=ADVANCED_FACE('',(#362,#363),#37,.F.);
#408=CLOSED_SHELL('',(#376,#377,#378,#379,#380,#381,#382,#383,#384,#385,
#386,#387,#388,#389,#390,#391,#392,#393,#394,#395,#396,#397,#398,#399,#400,
#401,#402,#403,#404,#405,#406,#407));
#409=STYLED_ITEM('',(#410),#417);
#410=PRESENTATION_STYLE_ASSIGNMENT((#411));
#411=SURFACE_STYLE_USAGE(.BOTH.,#412);
#412=SURFACE_SIDE_STYLE('',(#413));
#413=SURFACE_STYLE_FILL_AREA(#414);
#414=FILL_AREA_STYLE('',(#415));
#415=FILL_AREA_STYLE_COLOUR('',#416);
#416=COLOUR_RGB('',0.689999997615814,0.689999997615814,0.689999997615814);
#417=MANIFOLD_SOLID_BREP('LMFM12LUU',#408);
#418=SHAPE_DEFINITION_REPRESENTATION(#738,#419);
#419=SHAPE_REPRESENTATION('LMFM12LUU',(#420),#733);
#420=AXIS2_PLACEMENT_3D('',#627,#489,#490);
#421=AXIS2_PLACEMENT_3D('',#628,#491,#492);
#422=AXIS2_PLACEMENT_3D('',#629,#493,#494);
#423=AXIS2_PLACEMENT_3D('',#631,#495,#496);
#424=AXIS2_PLACEMENT_3D('',#633,#497,#498);
#425=AXIS2_PLACEMENT_3D('',#634,#499,#500);
#426=AXIS2_PLACEMENT_3D('',#636,#501,#502);
#427=AXIS2_PLACEMENT_3D('',#637,#503,#504);
#428=AXIS2_PLACEMENT_3D('',#639,#505,#506);
#429=AXIS2_PLACEMENT_3D('',#640,#507,#508);
#430=AXIS2_PLACEMENT_3D('',#642,#509,#510);
#431=AXIS2_PLACEMENT_3D('',#644,#511,#512);
#432=AXIS2_PLACEMENT_3D('',#645,#513,#514);
#433=AXIS2_PLACEMENT_3D('',#647,#515,#516);
#434=AXIS2_PLACEMENT_3D('',#649,#517,#518);
#435=AXIS2_PLACEMENT_3D('',#651,#519,#520);
#436=AXIS2_PLACEMENT_3D('',#653,#521,#522);
#437=AXIS2_PLACEMENT_3D('',#655,#523,#524);
#438=AXIS2_PLACEMENT_3D('',#656,#525,#526);
#439=AXIS2_PLACEMENT_3D('',#658,#527,#528);
#440=AXIS2_PLACEMENT_3D('',#660,#529,#530);
#441=AXIS2_PLACEMENT_3D('',#662,#531,#532);
#442=AXIS2_PLACEMENT_3D('',#664,#533,#534);
#443=AXIS2_PLACEMENT_3D('',#666,#535,#536);
#444=AXIS2_PLACEMENT_3D('',#668,#537,#538);
#445=AXIS2_PLACEMENT_3D('',#669,#539,#540);
#446=AXIS2_PLACEMENT_3D('',#671,#541,#542);
#447=AXIS2_PLACEMENT_3D('',#673,#543,#544);
#448=AXIS2_PLACEMENT_3D('',#674,#545,#546);
#449=AXIS2_PLACEMENT_3D('',#676,#547,#548);
#450=AXIS2_PLACEMENT_3D('',#677,#549,#550);
#451=AXIS2_PLACEMENT_3D('',#678,#551,#552);
#452=AXIS2_PLACEMENT_3D('',#680,#553,#554);
#453=AXIS2_PLACEMENT_3D('',#681,#555,#556);
#454=AXIS2_PLACEMENT_3D('',#683,#557,#558);
#455=AXIS2_PLACEMENT_3D('',#684,#559,#560);
#456=AXIS2_PLACEMENT_3D('',#685,#561,#562);
#457=AXIS2_PLACEMENT_3D('',#687,#563,#564);
#458=AXIS2_PLACEMENT_3D('',#688,#565,#566);
#459=AXIS2_PLACEMENT_3D('',#690,#567,#568);
#460=AXIS2_PLACEMENT_3D('',#691,#569,#570);
#461=AXIS2_PLACEMENT_3D('',#692,#571,#572);
#462=AXIS2_PLACEMENT_3D('',#694,#573,#574);
#463=AXIS2_PLACEMENT_3D('',#695,#575,#576);
#464=AXIS2_PLACEMENT_3D('',#697,#577,#578);
#465=AXIS2_PLACEMENT_3D('',#698,#579,#580);
#466=AXIS2_PLACEMENT_3D('',#699,#581,#582);
#467=AXIS2_PLACEMENT_3D('',#701,#583,#584);
#468=AXIS2_PLACEMENT_3D('',#702,#585,#586);
#469=AXIS2_PLACEMENT_3D('',#704,#587,#588);
#470=AXIS2_PLACEMENT_3D('',#705,#589,#590);
#471=AXIS2_PLACEMENT_3D('',#706,#591,#592);
#472=AXIS2_PLACEMENT_3D('',#707,#593,#594);
#473=AXIS2_PLACEMENT_3D('',#708,#595,#596);
#474=AXIS2_PLACEMENT_3D('',#710,#597,#598);
#475=AXIS2_PLACEMENT_3D('',#712,#599,#600);
#476=AXIS2_PLACEMENT_3D('',#713,#601,#602);
#477=AXIS2_PLACEMENT_3D('',#715,#603,#604);
#478=AXIS2_PLACEMENT_3D('',#716,#605,#606);
#479=AXIS2_PLACEMENT_3D('',#718,#607,#608);
#480=AXIS2_PLACEMENT_3D('',#719,#609,#610);
#481=AXIS2_PLACEMENT_3D('',#720,#611,#612);
#482=AXIS2_PLACEMENT_3D('',#722,#613,#614);
#483=AXIS2_PLACEMENT_3D('',#723,#615,#616);
#484=AXIS2_PLACEMENT_3D('',#725,#617,#618);
#485=AXIS2_PLACEMENT_3D('',#726,#619,#620);
#486=AXIS2_PLACEMENT_3D('',#728,#621,#622);
#487=AXIS2_PLACEMENT_3D('',#729,#623,#624);
#488=AXIS2_PLACEMENT_3D('',#731,#625,#626);
#489=DIRECTION('',(0.,0.,1.));
#490=DIRECTION('',(1.,0.,0.));
#491=DIRECTION('',(0.,-9.97252962470316E-16,-1.));
#492=DIRECTION('',(0.,1.,-9.97252962470316E-16));
#493=DIRECTION('',(0.,-1.55820775385987E-17,-1.));
#494=DIRECTION('',(0.,1.,-1.55820775385987E-17));
#495=DIRECTION('',(0.,-9.97252962470316E-16,-1.));
#496=DIRECTION('',(0.,1.,-9.97252962470316E-16));
#497=DIRECTION('',(0.,-9.97252962470316E-16,-1.));
#498=DIRECTION('',(0.,1.,-9.97252962470316E-16));
#499=DIRECTION('',(0.,-9.97252962470316E-16,-1.));
#500=DIRECTION('',(0.,1.,-9.97252962470316E-16));
#501=DIRECTION('',(0.,-9.97252962470316E-16,-1.));
#502=DIRECTION('',(0.,1.,-9.97252962470316E-16));
#503=DIRECTION('',(0.,0.,1.));
#504=DIRECTION('',(1.,0.,0.));
#505=DIRECTION('',(0.,0.,-1.));
#506=DIRECTION('',(-1.,0.,0.));
#507=DIRECTION('',(0.,0.,1.));
#508=DIRECTION('',(1.,0.,0.));
#509=DIRECTION('',(0.,0.,1.));
#510=DIRECTION('',(1.,0.,0.));
#511=DIRECTION('',(0.,0.,1.));
#512=DIRECTION('',(1.,0.,0.));
#513=DIRECTION('',(0.,0.,1.));
#514=DIRECTION('',(1.,0.,0.));
#515=DIRECTION('',(0.,0.,-1.));
#516=DIRECTION('',(-1.,0.,0.));
#517=DIRECTION('',(0.,0.,-1.));
#518=DIRECTION('',(-1.,0.,0.));
#519=DIRECTION('',(0.,0.,-1.));
#520=DIRECTION('',(-1.,0.,0.));
#521=DIRECTION('',(0.,0.,-1.));
#522=DIRECTION('',(-1.,0.,0.));
#523=DIRECTION('',(0.,0.,1.));
#524=DIRECTION('',(1.,0.,0.));
#525=DIRECTION('',(0.,0.,1.));
#526=DIRECTION('',(1.,0.,0.));
#527=DIRECTION('',(0.,0.,-1.));
#528=DIRECTION('',(-1.,0.,0.));
#529=DIRECTION('',(0.,0.,-1.));
#530=DIRECTION('',(-1.,0.,0.));
#531=DIRECTION('',(0.,0.,-1.));
#532=DIRECTION('',(-1.,0.,0.));
#533=DIRECTION('',(0.,0.,-1.));
#534=DIRECTION('',(-1.,0.,0.));
#535=DIRECTION('',(0.,0.,1.));
#536=DIRECTION('',(1.,0.,0.));
#537=DIRECTION('',(0.,9.97252962470316E-16,1.));
#538=DIRECTION('',(0.,-1.,9.97252962470316E-16));
#539=DIRECTION('',(0.,-1.55820775385987E-17,-1.));
#540=DIRECTION('',(0.,1.,-1.55820775385987E-17));
#541=DIRECTION('',(0.,-9.97252962470316E-16,-1.));
#542=DIRECTION('',(0.,1.,-9.97252962470316E-16));
#543=DIRECTION('',(0.,-9.97252962470316E-16,-1.));
#544=DIRECTION('',(0.,1.,-9.97252962470316E-16));
#545=DIRECTION('',(0.,-9.97252962470316E-16,-1.));
#546=DIRECTION('',(0.,1.,-9.97252962470316E-16));
#547=DIRECTION('',(0.,-9.97252962470316E-16,-1.));
#548=DIRECTION('',(0.,1.,-9.97252962470316E-16));
#549=DIRECTION('',(0.,0.,-1.));
#550=DIRECTION('',(-1.,0.,0.));
#551=DIRECTION('',(0.,0.,-1.));
#552=DIRECTION('',(-1.,0.,0.));
#553=DIRECTION('',(0.,0.,1.));
#554=DIRECTION('',(1.,0.,0.));
#555=DIRECTION('',(0.,0.,-1.));
#556=DIRECTION('',(-1.,0.,0.));
#557=DIRECTION('',(0.,0.,-1.));
#558=DIRECTION('',(-1.,0.,0.));
#559=DIRECTION('',(0.,0.,-1.));
#560=DIRECTION('',(-1.,0.,0.));
#561=DIRECTION('',(0.,0.,-1.));
#562=DIRECTION('',(-1.,0.,0.));
#563=DIRECTION('',(0.,0.,1.));
#564=DIRECTION('',(1.,0.,0.));
#565=DIRECTION('',(0.,0.,-1.));
#566=DIRECTION('',(-1.,0.,0.));
#567=DIRECTION('',(0.,0.,-1.));
#568=DIRECTION('',(-1.,0.,0.));
#569=DIRECTION('',(0.,0.,-1.));
#570=DIRECTION('',(-1.,0.,0.));
#571=DIRECTION('',(0.,0.,-1.));
#572=DIRECTION('',(-1.,0.,0.));
#573=DIRECTION('',(0.,0.,1.));
#574=DIRECTION('',(1.,0.,0.));
#575=DIRECTION('',(0.,0.,-1.));
#576=DIRECTION('',(-1.,0.,0.));
#577=DIRECTION('',(0.,0.,-1.));
#578=DIRECTION('',(-1.,0.,0.));
#579=DIRECTION('',(0.,0.,-1.));
#580=DIRECTION('',(-1.,0.,0.));
#581=DIRECTION('',(0.,0.,-1.));
#582=DIRECTION('',(-1.,0.,0.));
#583=DIRECTION('',(0.,0.,1.));
#584=DIRECTION('',(1.,0.,0.));
#585=DIRECTION('',(0.,0.,-1.));
#586=DIRECTION('',(-1.,0.,0.));
#587=DIRECTION('',(0.,0.,-1.));
#588=DIRECTION('',(-1.,0.,0.));
#589=DIRECTION('',(0.,0.,-1.));
#590=DIRECTION('',(-1.,0.,0.));
#591=DIRECTION('',(0.,0.,1.));
#592=DIRECTION('',(1.,0.,0.));
#593=DIRECTION('',(0.,-1.55820775385987E-17,-1.));
#594=DIRECTION('',(0.,1.,-1.55820775385987E-17));
#595=DIRECTION('',(0.,-1.55820775385987E-17,-1.));
#596=DIRECTION('',(0.,1.,-1.55820775385987E-17));
#597=DIRECTION('',(0.,-1.55820775385987E-17,-1.));
#598=DIRECTION('',(0.,1.,-1.55820775385987E-17));
#599=DIRECTION('',(0.,-1.55820775385987E-17,-1.));
#600=DIRECTION('',(0.,1.,-1.55820775385987E-17));
#601=DIRECTION('',(0.,-1.55820775385987E-17,-1.));
#602=DIRECTION('',(0.,1.,-1.55820775385987E-17));
#603=DIRECTION('',(0.,1.55820775385987E-17,1.));
#604=DIRECTION('',(0.,-1.,1.55820775385987E-17));
#605=DIRECTION('',(0.,-1.55820775385987E-17,-1.));
#606=DIRECTION('',(0.,1.,-1.55820775385987E-17));
#607=DIRECTION('',(0.,-1.55820775385987E-17,-1.));
#608=DIRECTION('',(0.,1.,-1.55820775385987E-17));
#609=DIRECTION('',(0.,-1.55820775385987E-17,-1.));
#610=DIRECTION('',(0.,1.,-1.55820775385987E-17));
#611=DIRECTION('',(0.,-1.55820775385987E-17,-1.));
#612=DIRECTION('',(0.,1.,-1.55820775385987E-17));
#613=DIRECTION('',(0.,-1.55820775385987E-17,-1.));
#614=DIRECTION('',(0.,1.,-1.55820775385987E-17));
#615=DIRECTION('',(0.,-1.55820775385987E-17,-1.));
#616=DIRECTION('',(0.,1.,-1.55820775385987E-17));
#617=DIRECTION('',(0.,-1.55820775385987E-17,-1.));
#618=DIRECTION('',(0.,1.,-1.55820775385987E-17));
#619=DIRECTION('',(0.,-1.55820775385987E-17,-1.));
#620=DIRECTION('',(0.,1.,-1.55820775385987E-17));
#621=DIRECTION('',(0.,1.55820775385987E-17,1.));
#622=DIRECTION('',(0.,-1.,1.55820775385987E-17));
#623=DIRECTION('',(0.,-1.55820775385987E-17,-1.));
#624=DIRECTION('',(0.,1.,-1.55820775385987E-17));
#625=DIRECTION('',(0.,0.,-1.));
#626=DIRECTION('',(-1.,0.,0.));
#627=CARTESIAN_POINT('',(0.,0.,0.));
#628=CARTESIAN_POINT('',(0.,5.6843418860808E-14,28.5));
#629=CARTESIAN_POINT('',(0.,1.92592994438724E-31,28.5));
#630=CARTESIAN_POINT('',(0.,6.4,28.5));
#631=CARTESIAN_POINT('',(0.,5.6843418860808E-14,28.5));
#632=CARTESIAN_POINT('',(0.,9.89999999999994,28.5));
#633=CARTESIAN_POINT('',(0.,5.55111512312578E-14,27.9));
#634=CARTESIAN_POINT('',(0.,5.62450670833258E-14,27.9));
#635=CARTESIAN_POINT('',(0.,10.4999999999999,27.9));
#636=CARTESIAN_POINT('',(0.,0.,-28.5));
#637=CARTESIAN_POINT('',(0.,3.1413468317815E-14,3.));
#638=CARTESIAN_POINT('',(10.4999999999999,3.1413468317815E-14,3.));
#639=CARTESIAN_POINT('',(0.,0.,3.));
#640=CARTESIAN_POINT('',(0.,0.,-2.7));
#641=CARTESIAN_POINT('',(21.,0.,-2.7));
#642=CARTESIAN_POINT('',(0.,0.,2.7));
#643=CARTESIAN_POINT('',(21.,0.,2.7));
#644=CARTESIAN_POINT('',(0.,0.,3.));
#645=CARTESIAN_POINT('',(0.,0.,3.));
#646=CARTESIAN_POINT('',(20.7,0.,3.));
#647=CARTESIAN_POINT('',(-16.,0.,3.));
#648=CARTESIAN_POINT('',(-19.75,0.,3.));
#649=CARTESIAN_POINT('',(0.,-16.,3.));
#650=CARTESIAN_POINT('',(-3.75,-16.,3.));
#651=CARTESIAN_POINT('',(16.,0.,3.));
#652=CARTESIAN_POINT('',(12.25,0.,3.));
#653=CARTESIAN_POINT('',(0.,16.,3.));
#654=CARTESIAN_POINT('',(-3.75,16.,3.));
#655=CARTESIAN_POINT('',(0.,0.,-3.));
#656=CARTESIAN_POINT('',(0.,0.,-3.));
#657=CARTESIAN_POINT('',(20.7,0.,-3.));
#658=CARTESIAN_POINT('',(-16.,0.,-3.));
#659=CARTESIAN_POINT('',(-18.25,0.,-3.));
#660=CARTESIAN_POINT('',(0.,-16.,-3.));
#661=CARTESIAN_POINT('',(-2.25,-16.,-3.));
#662=CARTESIAN_POINT('',(16.,0.,-3.));
#663=CARTESIAN_POINT('',(13.75,0.,-3.));
#664=CARTESIAN_POINT('',(0.,16.,-3.));
#665=CARTESIAN_POINT('',(-2.25,16.,-3.));
#666=CARTESIAN_POINT('',(0.,2.54299505429931E-14,-3.));
#667=CARTESIAN_POINT('',(10.4999999999999,2.54299505429931E-14,-3.));
#668=CARTESIAN_POINT('',(0.,9.89999999999983,-28.5));
#669=CARTESIAN_POINT('',(0.,-8.88178419700125E-16,-28.5));
#670=CARTESIAN_POINT('',(0.,6.4,-28.5));
#671=CARTESIAN_POINT('',(0.,1.33055996154118E-29,-28.5));
#672=CARTESIAN_POINT('',(0.,9.89999999999983,-28.5));
#673=CARTESIAN_POINT('',(0.,0.,-27.9));
#674=CARTESIAN_POINT('',(0.,5.98351777482204E-16,-27.9));
#675=CARTESIAN_POINT('',(0.,10.4999999999998,-27.9));
#676=CARTESIAN_POINT('',(0.,0.,-28.5));
#677=CARTESIAN_POINT('',(0.,16.,-500.));
#678=CARTESIAN_POINT('',(0.,16.,-1.09999999999999));
#679=CARTESIAN_POINT('',(-3.75,16.,-1.09999999999999));
#680=CARTESIAN_POINT('',(0.,19.75,-1.10000000000001));
#681=CARTESIAN_POINT('',(0.,16.,-1.10000000000005));
#682=CARTESIAN_POINT('',(-2.25,16.,-1.10000000000005));
#683=CARTESIAN_POINT('',(0.,16.,-500.));
#684=CARTESIAN_POINT('',(16.,0.,-500.));
#685=CARTESIAN_POINT('',(16.,0.,-1.09999999999999));
#686=CARTESIAN_POINT('',(12.25,0.,-1.09999999999999));
#687=CARTESIAN_POINT('',(16.,3.75,-1.10000000000001));
#688=CARTESIAN_POINT('',(16.,0.,-1.10000000000005));
#689=CARTESIAN_POINT('',(13.75,0.,-1.10000000000005));
#690=CARTESIAN_POINT('',(16.,0.,-500.));
#691=CARTESIAN_POINT('',(0.,-16.,-500.));
#692=CARTESIAN_POINT('',(0.,-16.,-1.09999999999999));
#693=CARTESIAN_POINT('',(-3.75,-16.,-1.09999999999999));
#694=CARTESIAN_POINT('',(0.,-12.25,-1.10000000000001));
#695=CARTESIAN_POINT('',(0.,-16.,-1.10000000000005));
#696=CARTESIAN_POINT('',(-2.25,-16.,-1.10000000000005));
#697=CARTESIAN_POINT('',(0.,-16.,-500.));
#698=CARTESIAN_POINT('',(-16.,0.,-500.));
#699=CARTESIAN_POINT('',(-16.,0.,-1.09999999999999));
#700=CARTESIAN_POINT('',(-19.75,0.,-1.09999999999999));
#701=CARTESIAN_POINT('',(-16.,3.75,-1.10000000000001));
#702=CARTESIAN_POINT('',(-16.,0.,-1.10000000000005));
#703=CARTESIAN_POINT('',(-18.25,0.,-1.10000000000005));
#704=CARTESIAN_POINT('',(-16.,0.,-500.));
#705=CARTESIAN_POINT('',(0.,0.,3.));
#706=CARTESIAN_POINT('',(0.,0.,-2.7));
#707=CARTESIAN_POINT('',(0.,-8.88178419700125E-16,-28.5));
#708=CARTESIAN_POINT('',(0.,-8.75712757669246E-16,-27.7));
#709=CARTESIAN_POINT('',(0.,6.8,-27.7));
#710=CARTESIAN_POINT('',(0.,-8.69479926653807E-16,-27.3));
#711=CARTESIAN_POINT('',(0.,6.8,-27.3));
#712=CARTESIAN_POINT('',(0.,6.,-27.3));
#713=CARTESIAN_POINT('',(0.,-8.69479926653807E-16,-27.3));
#714=CARTESIAN_POINT('',(0.,6.,-27.3));
#715=CARTESIAN_POINT('',(0.,6.8,-27.7));
#716=CARTESIAN_POINT('',(0.,-8.75712757669246E-16,-27.7));
#717=CARTESIAN_POINT('',(0.,6.4,-27.7));
#718=CARTESIAN_POINT('',(0.,-8.88178419700125E-16,-28.5));
#719=CARTESIAN_POINT('',(0.,-8.88178419700125E-16,-28.5));
#720=CARTESIAN_POINT('',(0.,-1.24656620308788E-17,27.7));
#721=CARTESIAN_POINT('',(0.,6.4,27.7));
#722=CARTESIAN_POINT('',(0.,6.4,27.7));
#723=CARTESIAN_POINT('',(0.,-1.24656620308788E-17,27.7));
#724=CARTESIAN_POINT('',(0.,6.8,27.7));
#725=CARTESIAN_POINT('',(0.,-8.88178419700125E-16,-28.5));
#726=CARTESIAN_POINT('',(0.,-1.86984930463183E-17,27.3));
#727=CARTESIAN_POINT('',(0.,6.8,27.3));
#728=CARTESIAN_POINT('',(0.,6.8,27.3));
#729=CARTESIAN_POINT('',(0.,-1.86984930463183E-17,27.3));
#730=CARTESIAN_POINT('',(0.,6.,27.3));
#731=CARTESIAN_POINT('',(0.,0.,-28.5));
#732=MECHANICAL_DESIGN_GEOMETRIC_PRESENTATION_REPRESENTATION('',(#409),
#733);
#733=(
GEOMETRIC_REPRESENTATION_CONTEXT(3)
GLOBAL_UNCERTAINTY_ASSIGNED_CONTEXT((#734))
GLOBAL_UNIT_ASSIGNED_CONTEXT((#737,#736,#735))
REPRESENTATION_CONTEXT('LMFM12LUU','TOP_LEVEL_ASSEMBLY_PART')
);
#734=UNCERTAINTY_MEASURE_WITH_UNIT(LENGTH_MEASURE(0.005),#737,
'DISTANCE_ACCURACY_VALUE','Maximum Tolerance applied to model');
#735=(
NAMED_UNIT(*)
SI_UNIT($,.STERADIAN.)
SOLID_ANGLE_UNIT()
);
#736=(
NAMED_UNIT(*)
PLANE_ANGLE_UNIT()
SI_UNIT($,.RADIAN.)
);
#737=(
LENGTH_UNIT()
NAMED_UNIT(*)
SI_UNIT(.MILLI.,.METRE.)
);
#738=PRODUCT_DEFINITION_SHAPE('','',#739);
#739=PRODUCT_DEFINITION('','',#741,#740);
#740=DESIGN_CONTEXT('',#747,'design');
#741=PRODUCT_DEFINITION_FORMATION_WITH_SPECIFIED_SOURCE('','',#743,
 .NOT_KNOWN.);
#742=PRODUCT_RELATED_PRODUCT_CATEGORY('','',(#743));
#743=PRODUCT('LMFM12LUU','LMFM12LUU','LMFM12LUU',(#745));
#744=PRODUCT_CATEGORY('','');
#745=MECHANICAL_CONTEXT('',#747,'mechanical');
#746=APPLICATION_PROTOCOL_DEFINITION('international standard',
'config_control_design',2010,#747);
#747=APPLICATION_CONTEXT(
'configuration controlled 3D designs of mechanical parts and assemblie
s');
ENDSEC;
END-ISO-10303-21;
