ISO-10303-21;
HEADER;
/* Generated by software containing ST-Developer
 * from STEP Tools, Inc. (www.steptools.com) 
 */
/* OPTION: using custom renumber hook */

FILE_DESCRIPTION(
/* description */ ('STEP AP203'),
/* implementation_level */ '2;1');

FILE_NAME(
/* name */ 'LMEFM25LUU',
/* time_stamp */ '2022-08-17T07:01:05+02:00',
/* author */ ('License CC BY-ND 4.0'),
/* organization */ ('CADENAS'),
/* preprocessor_version */ 'ST-DEVELOPER v18.102',
/* originating_system */ 'PARTsolutions',
/* authorisation */ '  ');

FILE_SCHEMA (('CONFIG_CONTROL_DESIGN'));
ENDSEC;

DATA;
#10=PROPERTY_DEFINITION_REPRESENTATION(#14,#12);
#11=PROPERTY_DEFINITION_REPRESENTATION(#15,#13);
#12=REPRESENTATION('',(#16),#693);
#13=REPRESENTATION('',(#17),#693);
#14=PROPERTY_DEFINITION('pmi validation property','',#698);
#15=PROPERTY_DEFINITION('pmi validation property','',#698);
#16=VALUE_REPRESENTATION_ITEM('number of annotations',COUNT_MEASURE(0.));
#17=VALUE_REPRESENTATION_ITEM('number of views',COUNT_MEASURE(0.));
#18=SHAPE_REPRESENTATION_RELATIONSHIP('','',#397,#19);
#19=ADVANCED_BREP_SHAPE_REPRESENTATION('',(#395),#693);
#20=CONICAL_SURFACE('',#452,30.6,0.785398163397445);
#21=CONICAL_SURFACE('',#453,31.,0.785398163397445);
#22=TOROIDAL_SURFACE('',#407,19.2,0.799999999999988);
#23=TOROIDAL_SURFACE('',#429,19.2,0.799999999999995);
#24=PLANE('',#405);
#25=PLANE('',#414);
#26=PLANE('',#420);
#27=PLANE('',#427);
#28=PLANE('',#434);
#29=PLANE('',#439);
#30=PLANE('',#444);
#31=PLANE('',#449);
#32=PLANE('',#454);
#33=PLANE('',#458);
#34=PLANE('',#462);
#35=ORIENTED_EDGE('',*,*,#103,.T.);
#36=ORIENTED_EDGE('',*,*,#104,.F.);
#37=ORIENTED_EDGE('',*,*,#105,.T.);
#38=ORIENTED_EDGE('',*,*,#106,.T.);
#39=ORIENTED_EDGE('',*,*,#107,.F.);
#40=ORIENTED_EDGE('',*,*,#104,.T.);
#41=ORIENTED_EDGE('',*,*,#107,.T.);
#42=ORIENTED_EDGE('',*,*,#108,.F.);
#43=ORIENTED_EDGE('',*,*,#109,.T.);
#44=ORIENTED_EDGE('',*,*,#108,.T.);
#45=ORIENTED_EDGE('',*,*,#110,.T.);
#46=ORIENTED_EDGE('',*,*,#111,.T.);
#47=ORIENTED_EDGE('',*,*,#112,.T.);
#48=ORIENTED_EDGE('',*,*,#113,.T.);
#49=ORIENTED_EDGE('',*,*,#114,.T.);
#50=ORIENTED_EDGE('',*,*,#115,.T.);
#51=ORIENTED_EDGE('',*,*,#116,.T.);
#52=ORIENTED_EDGE('',*,*,#109,.F.);
#53=ORIENTED_EDGE('',*,*,#117,.T.);
#54=ORIENTED_EDGE('',*,*,#118,.F.);
#55=ORIENTED_EDGE('',*,*,#119,.F.);
#56=ORIENTED_EDGE('',*,*,#120,.F.);
#57=ORIENTED_EDGE('',*,*,#121,.F.);
#58=ORIENTED_EDGE('',*,*,#122,.T.);
#59=ORIENTED_EDGE('',*,*,#105,.F.);
#60=ORIENTED_EDGE('',*,*,#123,.T.);
#61=ORIENTED_EDGE('',*,*,#124,.T.);
#62=ORIENTED_EDGE('',*,*,#123,.F.);
#63=ORIENTED_EDGE('',*,*,#124,.F.);
#64=ORIENTED_EDGE('',*,*,#122,.F.);
#65=ORIENTED_EDGE('',*,*,#125,.T.);
#66=ORIENTED_EDGE('',*,*,#116,.F.);
#67=ORIENTED_EDGE('',*,*,#126,.T.);
#68=ORIENTED_EDGE('',*,*,#125,.F.);
#69=ORIENTED_EDGE('',*,*,#121,.T.);
#70=ORIENTED_EDGE('',*,*,#126,.F.);
#71=ORIENTED_EDGE('',*,*,#127,.T.);
#72=ORIENTED_EDGE('',*,*,#115,.F.);
#73=ORIENTED_EDGE('',*,*,#128,.T.);
#74=ORIENTED_EDGE('',*,*,#127,.F.);
#75=ORIENTED_EDGE('',*,*,#120,.T.);
#76=ORIENTED_EDGE('',*,*,#128,.F.);
#77=ORIENTED_EDGE('',*,*,#129,.T.);
#78=ORIENTED_EDGE('',*,*,#114,.F.);
#79=ORIENTED_EDGE('',*,*,#130,.T.);
#80=ORIENTED_EDGE('',*,*,#129,.F.);
#81=ORIENTED_EDGE('',*,*,#119,.T.);
#82=ORIENTED_EDGE('',*,*,#130,.F.);
#83=ORIENTED_EDGE('',*,*,#131,.T.);
#84=ORIENTED_EDGE('',*,*,#113,.F.);
#85=ORIENTED_EDGE('',*,*,#132,.T.);
#86=ORIENTED_EDGE('',*,*,#131,.F.);
#87=ORIENTED_EDGE('',*,*,#118,.T.);
#88=ORIENTED_EDGE('',*,*,#132,.F.);
#89=ORIENTED_EDGE('',*,*,#111,.F.);
#90=ORIENTED_EDGE('',*,*,#112,.F.);
#91=ORIENTED_EDGE('',*,*,#117,.F.);
#92=ORIENTED_EDGE('',*,*,#110,.F.);
#93=ORIENTED_EDGE('',*,*,#133,.T.);
#94=ORIENTED_EDGE('',*,*,#103,.F.);
#95=ORIENTED_EDGE('',*,*,#134,.T.);
#96=ORIENTED_EDGE('',*,*,#133,.F.);
#97=ORIENTED_EDGE('',*,*,#135,.T.);
#98=ORIENTED_EDGE('',*,*,#134,.F.);
#99=ORIENTED_EDGE('',*,*,#136,.T.);
#100=ORIENTED_EDGE('',*,*,#135,.F.);
#101=ORIENTED_EDGE('',*,*,#106,.F.);
#102=ORIENTED_EDGE('',*,*,#136,.F.);
#103=EDGE_CURVE('',#137,#137,#171,.T.);
#104=EDGE_CURVE('',#138,#138,#172,.T.);
#105=EDGE_CURVE('',#139,#139,#173,.T.);
#106=EDGE_CURVE('',#140,#140,#174,.T.);
#107=EDGE_CURVE('',#141,#141,#175,.T.);
#108=EDGE_CURVE('',#142,#142,#176,.T.);
#109=EDGE_CURVE('',#143,#143,#177,.T.);
#110=EDGE_CURVE('',#144,#144,#178,.T.);
#111=EDGE_CURVE('',#145,#145,#179,.F.);
#112=EDGE_CURVE('',#146,#146,#180,.T.);
#113=EDGE_CURVE('',#147,#147,#181,.T.);
#114=EDGE_CURVE('',#148,#148,#182,.T.);
#115=EDGE_CURVE('',#149,#149,#183,.T.);
#116=EDGE_CURVE('',#150,#150,#184,.T.);
#117=EDGE_CURVE('',#151,#151,#185,.F.);
#118=EDGE_CURVE('',#152,#152,#186,.T.);
#119=EDGE_CURVE('',#153,#153,#187,.T.);
#120=EDGE_CURVE('',#154,#154,#188,.T.);
#121=EDGE_CURVE('',#155,#155,#189,.T.);
#122=EDGE_CURVE('',#156,#156,#190,.T.);
#123=EDGE_CURVE('',#157,#157,#191,.T.);
#124=EDGE_CURVE('',#158,#158,#192,.T.);
#125=EDGE_CURVE('',#159,#159,#193,.T.);
#126=EDGE_CURVE('',#160,#160,#194,.T.);
#127=EDGE_CURVE('',#161,#161,#195,.T.);
#128=EDGE_CURVE('',#162,#162,#196,.T.);
#129=EDGE_CURVE('',#163,#163,#197,.T.);
#130=EDGE_CURVE('',#164,#164,#198,.T.);
#131=EDGE_CURVE('',#165,#165,#199,.T.);
#132=EDGE_CURVE('',#166,#166,#200,.T.);
#133=EDGE_CURVE('',#167,#167,#201,.T.);
#134=EDGE_CURVE('',#168,#168,#202,.T.);
#135=EDGE_CURVE('',#169,#169,#203,.T.);
#136=EDGE_CURVE('',#170,#170,#204,.T.);
#137=VERTEX_POINT('',#596);
#138=VERTEX_POINT('',#598);
#139=VERTEX_POINT('',#601);
#140=VERTEX_POINT('',#603);
#141=VERTEX_POINT('',#606);
#142=VERTEX_POINT('',#609);
#143=VERTEX_POINT('',#612);
#144=VERTEX_POINT('',#615);
#145=VERTEX_POINT('',#617);
#146=VERTEX_POINT('',#620);
#147=VERTEX_POINT('',#622);
#148=VERTEX_POINT('',#624);
#149=VERTEX_POINT('',#626);
#150=VERTEX_POINT('',#628);
#151=VERTEX_POINT('',#631);
#152=VERTEX_POINT('',#633);
#153=VERTEX_POINT('',#635);
#154=VERTEX_POINT('',#637);
#155=VERTEX_POINT('',#639);
#156=VERTEX_POINT('',#641);
#157=VERTEX_POINT('',#644);
#158=VERTEX_POINT('',#647);
#159=VERTEX_POINT('',#651);
#160=VERTEX_POINT('',#654);
#161=VERTEX_POINT('',#658);
#162=VERTEX_POINT('',#661);
#163=VERTEX_POINT('',#665);
#164=VERTEX_POINT('',#668);
#165=VERTEX_POINT('',#672);
#166=VERTEX_POINT('',#675);
#167=VERTEX_POINT('',#681);
#168=VERTEX_POINT('',#684);
#169=VERTEX_POINT('',#687);
#170=VERTEX_POINT('',#690);
#171=CIRCLE('',#400,12.4999999999999);
#172=CIRCLE('',#401,12.5);
#173=CIRCLE('',#403,12.5);
#174=CIRCLE('',#404,12.5);
#175=CIRCLE('',#406,19.2);
#176=CIRCLE('',#408,20.);
#177=CIRCLE('',#410,20.);
#178=CIRCLE('',#412,31.);
#179=CIRCLE('',#413,31.);
#180=CIRCLE('',#415,30.6);
#181=CIRCLE('',#416,4.5);
#182=CIRCLE('',#417,4.5);
#183=CIRCLE('',#418,4.5);
#184=CIRCLE('',#419,4.5);
#185=CIRCLE('',#421,30.6);
#186=CIRCLE('',#422,2.75);
#187=CIRCLE('',#423,2.75);
#188=CIRCLE('',#424,2.75);
#189=CIRCLE('',#425,2.75);
#190=CIRCLE('',#426,20.);
#191=CIRCLE('',#428,19.2);
#192=CIRCLE('',#430,20.);
#193=CIRCLE('',#433,4.5);
#194=CIRCLE('',#435,2.75);
#195=CIRCLE('',#438,4.5);
#196=CIRCLE('',#440,2.75);
#197=CIRCLE('',#443,4.5);
#198=CIRCLE('',#445,2.75);
#199=CIRCLE('',#448,4.5);
#200=CIRCLE('',#450,2.75);
#201=CIRCLE('',#455,14.0999999999999);
#202=CIRCLE('',#457,14.0999999999999);
#203=CIRCLE('',#459,13.2999999999999);
#204=CIRCLE('',#461,13.2999999999999);
#205=EDGE_LOOP('',(#35));
#206=EDGE_LOOP('',(#36));
#207=EDGE_LOOP('',(#37));
#208=EDGE_LOOP('',(#38));
#209=EDGE_LOOP('',(#39));
#210=EDGE_LOOP('',(#40));
#211=EDGE_LOOP('',(#41));
#212=EDGE_LOOP('',(#42));
#213=EDGE_LOOP('',(#43));
#214=EDGE_LOOP('',(#44));
#215=EDGE_LOOP('',(#45));
#216=EDGE_LOOP('',(#46));
#217=EDGE_LOOP('',(#47));
#218=EDGE_LOOP('',(#48));
#219=EDGE_LOOP('',(#49));
#220=EDGE_LOOP('',(#50));
#221=EDGE_LOOP('',(#51));
#222=EDGE_LOOP('',(#52));
#223=EDGE_LOOP('',(#53));
#224=EDGE_LOOP('',(#54));
#225=EDGE_LOOP('',(#55));
#226=EDGE_LOOP('',(#56));
#227=EDGE_LOOP('',(#57));
#228=EDGE_LOOP('',(#58));
#229=EDGE_LOOP('',(#59));
#230=EDGE_LOOP('',(#60));
#231=EDGE_LOOP('',(#61));
#232=EDGE_LOOP('',(#62));
#233=EDGE_LOOP('',(#63));
#234=EDGE_LOOP('',(#64));
#235=EDGE_LOOP('',(#65));
#236=EDGE_LOOP('',(#66));
#237=EDGE_LOOP('',(#67));
#238=EDGE_LOOP('',(#68));
#239=EDGE_LOOP('',(#69));
#240=EDGE_LOOP('',(#70));
#241=EDGE_LOOP('',(#71));
#242=EDGE_LOOP('',(#72));
#243=EDGE_LOOP('',(#73));
#244=EDGE_LOOP('',(#74));
#245=EDGE_LOOP('',(#75));
#246=EDGE_LOOP('',(#76));
#247=EDGE_LOOP('',(#77));
#248=EDGE_LOOP('',(#78));
#249=EDGE_LOOP('',(#79));
#250=EDGE_LOOP('',(#80));
#251=EDGE_LOOP('',(#81));
#252=EDGE_LOOP('',(#82));
#253=EDGE_LOOP('',(#83));
#254=EDGE_LOOP('',(#84));
#255=EDGE_LOOP('',(#85));
#256=EDGE_LOOP('',(#86));
#257=EDGE_LOOP('',(#87));
#258=EDGE_LOOP('',(#88));
#259=EDGE_LOOP('',(#89));
#260=EDGE_LOOP('',(#90));
#261=EDGE_LOOP('',(#91));
#262=EDGE_LOOP('',(#92));
#263=EDGE_LOOP('',(#93));
#264=EDGE_LOOP('',(#94));
#265=EDGE_LOOP('',(#95));
#266=EDGE_LOOP('',(#96));
#267=EDGE_LOOP('',(#97));
#268=EDGE_LOOP('',(#98));
#269=EDGE_LOOP('',(#99));
#270=EDGE_LOOP('',(#100));
#271=EDGE_LOOP('',(#101));
#272=EDGE_LOOP('',(#102));
#273=FACE_BOUND('',#205,.T.);
#274=FACE_BOUND('',#206,.T.);
#275=FACE_BOUND('',#207,.T.);
#276=FACE_BOUND('',#208,.T.);
#277=FACE_BOUND('',#209,.T.);
#278=FACE_BOUND('',#210,.T.);
#279=FACE_BOUND('',#211,.T.);
#280=FACE_BOUND('',#212,.T.);
#281=FACE_BOUND('',#213,.T.);
#282=FACE_BOUND('',#214,.T.);
#283=FACE_BOUND('',#215,.T.);
#284=FACE_BOUND('',#216,.T.);
#285=FACE_BOUND('',#217,.T.);
#286=FACE_BOUND('',#218,.T.);
#287=FACE_BOUND('',#219,.T.);
#288=FACE_BOUND('',#220,.T.);
#289=FACE_BOUND('',#221,.T.);
#290=FACE_BOUND('',#222,.T.);
#291=FACE_BOUND('',#223,.T.);
#292=FACE_BOUND('',#224,.T.);
#293=FACE_BOUND('',#225,.T.);
#294=FACE_BOUND('',#226,.T.);
#295=FACE_BOUND('',#227,.T.);
#296=FACE_BOUND('',#228,.T.);
#297=FACE_BOUND('',#229,.T.);
#298=FACE_BOUND('',#230,.T.);
#299=FACE_BOUND('',#231,.T.);
#300=FACE_BOUND('',#232,.T.);
#301=FACE_BOUND('',#233,.T.);
#302=FACE_BOUND('',#234,.T.);
#303=FACE_BOUND('',#235,.T.);
#304=FACE_BOUND('',#236,.T.);
#305=FACE_BOUND('',#237,.T.);
#306=FACE_BOUND('',#238,.T.);
#307=FACE_BOUND('',#239,.T.);
#308=FACE_BOUND('',#240,.T.);
#309=FACE_BOUND('',#241,.T.);
#310=FACE_BOUND('',#242,.T.);
#311=FACE_BOUND('',#243,.T.);
#312=FACE_BOUND('',#244,.T.);
#313=FACE_BOUND('',#245,.T.);
#314=FACE_BOUND('',#246,.T.);
#315=FACE_BOUND('',#247,.T.);
#316=FACE_BOUND('',#248,.T.);
#317=FACE_BOUND('',#249,.T.);
#318=FACE_BOUND('',#250,.T.);
#319=FACE_BOUND('',#251,.T.);
#320=FACE_BOUND('',#252,.T.);
#321=FACE_BOUND('',#253,.T.);
#322=FACE_BOUND('',#254,.T.);
#323=FACE_BOUND('',#255,.T.);
#324=FACE_BOUND('',#256,.T.);
#325=FACE_BOUND('',#257,.T.);
#326=FACE_BOUND('',#258,.T.);
#327=FACE_BOUND('',#259,.T.);
#328=FACE_BOUND('',#260,.T.);
#329=FACE_BOUND('',#261,.T.);
#330=FACE_BOUND('',#262,.T.);
#331=FACE_BOUND('',#263,.T.);
#332=FACE_BOUND('',#264,.T.);
#333=FACE_BOUND('',#265,.T.);
#334=FACE_BOUND('',#266,.T.);
#335=FACE_BOUND('',#267,.T.);
#336=FACE_BOUND('',#268,.T.);
#337=FACE_BOUND('',#269,.T.);
#338=FACE_BOUND('',#270,.T.);
#339=FACE_BOUND('',#271,.T.);
#340=FACE_BOUND('',#272,.T.);
#341=CYLINDRICAL_SURFACE('',#399,12.5);
#342=CYLINDRICAL_SURFACE('',#402,12.5);
#343=CYLINDRICAL_SURFACE('',#409,20.);
#344=CYLINDRICAL_SURFACE('',#411,31.);
#345=CYLINDRICAL_SURFACE('',#431,20.);
#346=CYLINDRICAL_SURFACE('',#432,4.5);
#347=CYLINDRICAL_SURFACE('',#436,2.75);
#348=CYLINDRICAL_SURFACE('',#437,4.5);
#349=CYLINDRICAL_SURFACE('',#441,2.75);
#350=CYLINDRICAL_SURFACE('',#442,4.5);
#351=CYLINDRICAL_SURFACE('',#446,2.75);
#352=CYLINDRICAL_SURFACE('',#447,4.5);
#353=CYLINDRICAL_SURFACE('',#451,2.75);
#354=CYLINDRICAL_SURFACE('',#456,14.0999999999999);
#355=CYLINDRICAL_SURFACE('',#460,13.2999999999999);
#356=ADVANCED_FACE('',(#273,#274),#341,.F.);
#357=ADVANCED_FACE('',(#275,#276),#342,.F.);
#358=ADVANCED_FACE('',(#277,#278),#24,.F.);
#359=ADVANCED_FACE('',(#279,#280),#22,.T.);
#360=ADVANCED_FACE('',(#281,#282),#343,.T.);
#361=ADVANCED_FACE('',(#283,#284),#344,.T.);
#362=ADVANCED_FACE('',(#285,#286,#287,#288,#289,#290),#25,.T.);
#363=ADVANCED_FACE('',(#291,#292,#293,#294,#295,#296),#26,.F.);
#364=ADVANCED_FACE('',(#297,#298),#27,.F.);
#365=ADVANCED_FACE('',(#299,#300),#23,.T.);
#366=ADVANCED_FACE('',(#301,#302),#345,.T.);
#367=ADVANCED_FACE('',(#303,#304),#346,.F.);
#368=ADVANCED_FACE('',(#305,#306),#28,.T.);
#369=ADVANCED_FACE('',(#307,#308),#347,.F.);
#370=ADVANCED_FACE('',(#309,#310),#348,.F.);
#371=ADVANCED_FACE('',(#311,#312),#29,.T.);
#372=ADVANCED_FACE('',(#313,#314),#349,.F.);
#373=ADVANCED_FACE('',(#315,#316),#350,.F.);
#374=ADVANCED_FACE('',(#317,#318),#30,.T.);
#375=ADVANCED_FACE('',(#319,#320),#351,.F.);
#376=ADVANCED_FACE('',(#321,#322),#352,.F.);
#377=ADVANCED_FACE('',(#323,#324),#31,.T.);
#378=ADVANCED_FACE('',(#325,#326),#353,.F.);
#379=ADVANCED_FACE('',(#327,#328),#20,.T.);
#380=ADVANCED_FACE('',(#329,#330),#21,.T.);
#381=ADVANCED_FACE('',(#331,#332),#32,.T.);
#382=ADVANCED_FACE('',(#333,#334),#354,.F.);
#383=ADVANCED_FACE('',(#335,#336),#33,.T.);
#384=ADVANCED_FACE('',(#337,#338),#355,.F.);
#385=ADVANCED_FACE('',(#339,#340),#34,.T.);
#386=CLOSED_SHELL('',(#356,#357,#358,#359,#360,#361,#362,#363,#364,#365,
#366,#367,#368,#369,#370,#371,#372,#373,#374,#375,#376,#377,#378,#379,#380,
#381,#382,#383,#384,#385));
#387=STYLED_ITEM('',(#388),#395);
#388=PRESENTATION_STYLE_ASSIGNMENT((#389));
#389=SURFACE_STYLE_USAGE(.BOTH.,#390);
#390=SURFACE_SIDE_STYLE('',(#391));
#391=SURFACE_STYLE_FILL_AREA(#392);
#392=FILL_AREA_STYLE('',(#393));
#393=FILL_AREA_STYLE_COLOUR('',#394);
#394=COLOUR_RGB('',0.689999997615814,0.689999997615814,0.689999997615814);
#395=MANIFOLD_SOLID_BREP('LMEFM25LUU',#386);
#396=SHAPE_DEFINITION_REPRESENTATION(#698,#397);
#397=SHAPE_REPRESENTATION('LMEFM25LUU',(#398),#693);
#398=AXIS2_PLACEMENT_3D('',#593,#463,#464);
#399=AXIS2_PLACEMENT_3D('',#594,#465,#466);
#400=AXIS2_PLACEMENT_3D('',#595,#467,#468);
#401=AXIS2_PLACEMENT_3D('',#597,#469,#470);
#402=AXIS2_PLACEMENT_3D('',#599,#471,#472);
#403=AXIS2_PLACEMENT_3D('',#600,#473,#474);
#404=AXIS2_PLACEMENT_3D('',#602,#475,#476);
#405=AXIS2_PLACEMENT_3D('',#604,#477,#478);
#406=AXIS2_PLACEMENT_3D('',#605,#479,#480);
#407=AXIS2_PLACEMENT_3D('',#607,#481,#482);
#408=AXIS2_PLACEMENT_3D('',#608,#483,#484);
#409=AXIS2_PLACEMENT_3D('',#610,#485,#486);
#410=AXIS2_PLACEMENT_3D('',#611,#487,#488);
#411=AXIS2_PLACEMENT_3D('',#613,#489,#490);
#412=AXIS2_PLACEMENT_3D('',#614,#491,#492);
#413=AXIS2_PLACEMENT_3D('',#616,#493,#494);
#414=AXIS2_PLACEMENT_3D('',#618,#495,#496);
#415=AXIS2_PLACEMENT_3D('',#619,#497,#498);
#416=AXIS2_PLACEMENT_3D('',#621,#499,#500);
#417=AXIS2_PLACEMENT_3D('',#623,#501,#502);
#418=AXIS2_PLACEMENT_3D('',#625,#503,#504);
#419=AXIS2_PLACEMENT_3D('',#627,#505,#506);
#420=AXIS2_PLACEMENT_3D('',#629,#507,#508);
#421=AXIS2_PLACEMENT_3D('',#630,#509,#510);
#422=AXIS2_PLACEMENT_3D('',#632,#511,#512);
#423=AXIS2_PLACEMENT_3D('',#634,#513,#514);
#424=AXIS2_PLACEMENT_3D('',#636,#515,#516);
#425=AXIS2_PLACEMENT_3D('',#638,#517,#518);
#426=AXIS2_PLACEMENT_3D('',#640,#519,#520);
#427=AXIS2_PLACEMENT_3D('',#642,#521,#522);
#428=AXIS2_PLACEMENT_3D('',#643,#523,#524);
#429=AXIS2_PLACEMENT_3D('',#645,#525,#526);
#430=AXIS2_PLACEMENT_3D('',#646,#527,#528);
#431=AXIS2_PLACEMENT_3D('',#648,#529,#530);
#432=AXIS2_PLACEMENT_3D('',#649,#531,#532);
#433=AXIS2_PLACEMENT_3D('',#650,#533,#534);
#434=AXIS2_PLACEMENT_3D('',#652,#535,#536);
#435=AXIS2_PLACEMENT_3D('',#653,#537,#538);
#436=AXIS2_PLACEMENT_3D('',#655,#539,#540);
#437=AXIS2_PLACEMENT_3D('',#656,#541,#542);
#438=AXIS2_PLACEMENT_3D('',#657,#543,#544);
#439=AXIS2_PLACEMENT_3D('',#659,#545,#546);
#440=AXIS2_PLACEMENT_3D('',#660,#547,#548);
#441=AXIS2_PLACEMENT_3D('',#662,#549,#550);
#442=AXIS2_PLACEMENT_3D('',#663,#551,#552);
#443=AXIS2_PLACEMENT_3D('',#664,#553,#554);
#444=AXIS2_PLACEMENT_3D('',#666,#555,#556);
#445=AXIS2_PLACEMENT_3D('',#667,#557,#558);
#446=AXIS2_PLACEMENT_3D('',#669,#559,#560);
#447=AXIS2_PLACEMENT_3D('',#670,#561,#562);
#448=AXIS2_PLACEMENT_3D('',#671,#563,#564);
#449=AXIS2_PLACEMENT_3D('',#673,#565,#566);
#450=AXIS2_PLACEMENT_3D('',#674,#567,#568);
#451=AXIS2_PLACEMENT_3D('',#676,#569,#570);
#452=AXIS2_PLACEMENT_3D('',#677,#571,#572);
#453=AXIS2_PLACEMENT_3D('',#678,#573,#574);
#454=AXIS2_PLACEMENT_3D('',#679,#575,#576);
#455=AXIS2_PLACEMENT_3D('',#680,#577,#578);
#456=AXIS2_PLACEMENT_3D('',#682,#579,#580);
#457=AXIS2_PLACEMENT_3D('',#683,#581,#582);
#458=AXIS2_PLACEMENT_3D('',#685,#583,#584);
#459=AXIS2_PLACEMENT_3D('',#686,#585,#586);
#460=AXIS2_PLACEMENT_3D('',#688,#587,#588);
#461=AXIS2_PLACEMENT_3D('',#689,#589,#590);
#462=AXIS2_PLACEMENT_3D('',#691,#591,#592);
#463=DIRECTION('',(0.,0.,1.));
#464=DIRECTION('',(1.,0.,0.));
#465=DIRECTION('',(0.,0.,-1.));
#466=DIRECTION('',(-1.,0.,0.));
#467=DIRECTION('',(0.,0.,-1.));
#468=DIRECTION('',(-1.,0.,0.));
#469=DIRECTION('',(0.,0.,-1.));
#470=DIRECTION('',(-1.,0.,0.));
#471=DIRECTION('',(0.,0.,-1.));
#472=DIRECTION('',(-1.,0.,0.));
#473=DIRECTION('',(0.,0.,-1.));
#474=DIRECTION('',(-1.,0.,0.));
#475=DIRECTION('',(0.,0.,1.));
#476=DIRECTION('',(1.,0.,0.));
#477=DIRECTION('',(0.,0.,-1.));
#478=DIRECTION('',(-1.,0.,0.));
#479=DIRECTION('',(0.,0.,-1.));
#480=DIRECTION('',(-1.,0.,0.));
#481=DIRECTION('',(0.,0.,-1.));
#482=DIRECTION('',(-1.,0.,0.));
#483=DIRECTION('',(0.,0.,-1.));
#484=DIRECTION('',(-1.,0.,0.));
#485=DIRECTION('',(0.,0.,-1.));
#486=DIRECTION('',(-1.,0.,0.));
#487=DIRECTION('',(0.,0.,1.));
#488=DIRECTION('',(1.,0.,0.));
#489=DIRECTION('',(0.,0.,-1.));
#490=DIRECTION('',(-1.,0.,0.));
#491=DIRECTION('',(0.,0.,1.));
#492=DIRECTION('',(1.,0.,0.));
#493=DIRECTION('',(0.,0.,1.));
#494=DIRECTION('',(1.,0.,0.));
#495=DIRECTION('',(0.,0.,1.));
#496=DIRECTION('',(1.,0.,0.));
#497=DIRECTION('',(0.,0.,1.));
#498=DIRECTION('',(1.,0.,0.));
#499=DIRECTION('',(0.,0.,-1.));
#500=DIRECTION('',(-1.,0.,0.));
#501=DIRECTION('',(0.,0.,-1.));
#502=DIRECTION('',(-1.,0.,0.));
#503=DIRECTION('',(0.,0.,-1.));
#504=DIRECTION('',(-1.,0.,0.));
#505=DIRECTION('',(0.,0.,-1.));
#506=DIRECTION('',(-1.,0.,0.));
#507=DIRECTION('',(0.,0.,1.));
#508=DIRECTION('',(1.,0.,0.));
#509=DIRECTION('',(0.,0.,1.));
#510=DIRECTION('',(1.,0.,0.));
#511=DIRECTION('',(0.,0.,-1.));
#512=DIRECTION('',(-1.,0.,0.));
#513=DIRECTION('',(0.,0.,-1.));
#514=DIRECTION('',(-1.,0.,0.));
#515=DIRECTION('',(0.,0.,-1.));
#516=DIRECTION('',(-1.,0.,0.));
#517=DIRECTION('',(0.,0.,-1.));
#518=DIRECTION('',(-1.,0.,0.));
#519=DIRECTION('',(0.,0.,1.));
#520=DIRECTION('',(1.,0.,0.));
#521=DIRECTION('',(0.,0.,1.));
#522=DIRECTION('',(1.,0.,0.));
#523=DIRECTION('',(0.,0.,-1.));
#524=DIRECTION('',(-1.,0.,0.));
#525=DIRECTION('',(0.,0.,-1.));
#526=DIRECTION('',(-1.,0.,0.));
#527=DIRECTION('',(0.,0.,-1.));
#528=DIRECTION('',(-1.,0.,0.));
#529=DIRECTION('',(0.,0.,-1.));
#530=DIRECTION('',(-1.,0.,0.));
#531=DIRECTION('',(0.,0.,-1.));
#532=DIRECTION('',(-1.,0.,0.));
#533=DIRECTION('',(0.,0.,-1.));
#534=DIRECTION('',(-1.,0.,0.));
#535=DIRECTION('',(0.,0.,1.));
#536=DIRECTION('',(1.,0.,0.));
#537=DIRECTION('',(0.,0.,-1.));
#538=DIRECTION('',(-1.,0.,0.));
#539=DIRECTION('',(0.,0.,-1.));
#540=DIRECTION('',(-1.,0.,0.));
#541=DIRECTION('',(0.,0.,-1.));
#542=DIRECTION('',(-1.,0.,0.));
#543=DIRECTION('',(0.,0.,-1.));
#544=DIRECTION('',(-1.,0.,0.));
#545=DIRECTION('',(0.,0.,1.));
#546=DIRECTION('',(1.,0.,0.));
#547=DIRECTION('',(0.,0.,-1.));
#548=DIRECTION('',(-1.,0.,0.));
#549=DIRECTION('',(0.,0.,-1.));
#550=DIRECTION('',(-1.,0.,0.));
#551=DIRECTION('',(0.,0.,-1.));
#552=DIRECTION('',(-1.,0.,0.));
#553=DIRECTION('',(0.,0.,-1.));
#554=DIRECTION('',(-1.,0.,0.));
#555=DIRECTION('',(0.,0.,1.));
#556=DIRECTION('',(1.,0.,0.));
#557=DIRECTION('',(0.,0.,-1.));
#558=DIRECTION('',(-1.,0.,0.));
#559=DIRECTION('',(0.,0.,-1.));
#560=DIRECTION('',(-1.,0.,0.));
#561=DIRECTION('',(0.,0.,-1.));
#562=DIRECTION('',(-1.,0.,0.));
#563=DIRECTION('',(0.,0.,-1.));
#564=DIRECTION('',(-1.,0.,0.));
#565=DIRECTION('',(0.,0.,1.));
#566=DIRECTION('',(1.,0.,0.));
#567=DIRECTION('',(0.,0.,-1.));
#568=DIRECTION('',(-1.,0.,0.));
#569=DIRECTION('',(0.,0.,-1.));
#570=DIRECTION('',(-1.,0.,0.));
#571=DIRECTION('',(0.,0.,-1.));
#572=DIRECTION('',(-1.,0.,0.));
#573=DIRECTION('',(0.,0.,1.));
#574=DIRECTION('',(1.,0.,0.));
#575=DIRECTION('',(0.,0.,-1.));
#576=DIRECTION('',(-1.,0.,0.));
#577=DIRECTION('',(0.,0.,-1.));
#578=DIRECTION('',(-1.,0.,0.));
#579=DIRECTION('',(0.,0.,-1.));
#580=DIRECTION('',(-1.,0.,0.));
#581=DIRECTION('',(0.,0.,-1.));
#582=DIRECTION('',(-1.,0.,0.));
#583=DIRECTION('',(0.,0.,1.));
#584=DIRECTION('',(1.,0.,0.));
#585=DIRECTION('',(0.,0.,-1.));
#586=DIRECTION('',(-1.,0.,0.));
#587=DIRECTION('',(0.,0.,-1.));
#588=DIRECTION('',(-1.,0.,0.));
#589=DIRECTION('',(0.,0.,-1.));
#590=DIRECTION('',(-1.,0.,0.));
#591=DIRECTION('',(0.,0.,1.));
#592=DIRECTION('',(1.,0.,0.));
#593=CARTESIAN_POINT('',(0.,0.,0.));
#594=CARTESIAN_POINT('',(0.,0.,-56.));
#595=CARTESIAN_POINT('',(0.,0.,2.40000000000001));
#596=CARTESIAN_POINT('',(-12.4999999999999,0.,2.40000000000001));
#597=CARTESIAN_POINT('',(0.,0.,56.));
#598=CARTESIAN_POINT('',(-12.5,0.,56.));
#599=CARTESIAN_POINT('',(0.,0.,-56.));
#600=CARTESIAN_POINT('',(0.,0.,-56.));
#601=CARTESIAN_POINT('',(-12.5,0.,-56.));
#602=CARTESIAN_POINT('',(0.,0.,2.77555756156289E-14));
#603=CARTESIAN_POINT('',(12.5,0.,2.77555756156289E-14));
#604=CARTESIAN_POINT('',(0.,0.,56.));
#605=CARTESIAN_POINT('',(0.,0.,56.));
#606=CARTESIAN_POINT('',(-19.2,0.,56.));
#607=CARTESIAN_POINT('',(0.,0.,55.2));
#608=CARTESIAN_POINT('',(0.,0.,55.2));
#609=CARTESIAN_POINT('',(-20.,0.,55.2));
#610=CARTESIAN_POINT('',(0.,0.,-56.));
#611=CARTESIAN_POINT('',(0.,0.,4.));
#612=CARTESIAN_POINT('',(20.,0.,4.));
#613=CARTESIAN_POINT('',(0.,0.,4.));
#614=CARTESIAN_POINT('',(0.,0.,-3.6));
#615=CARTESIAN_POINT('',(31.,0.,-3.6));
#616=CARTESIAN_POINT('',(0.,0.,3.6));
#617=CARTESIAN_POINT('',(31.,0.,3.6));
#618=CARTESIAN_POINT('',(0.,0.,4.));
#619=CARTESIAN_POINT('',(0.,0.,4.));
#620=CARTESIAN_POINT('',(30.6,0.,4.));
#621=CARTESIAN_POINT('',(-25.5,0.,4.));
#622=CARTESIAN_POINT('',(-30.,0.,4.));
#623=CARTESIAN_POINT('',(0.,-25.5,4.));
#624=CARTESIAN_POINT('',(-4.5,-25.5,4.));
#625=CARTESIAN_POINT('',(25.5,0.,4.));
#626=CARTESIAN_POINT('',(21.,0.,4.));
#627=CARTESIAN_POINT('',(0.,25.5,4.));
#628=CARTESIAN_POINT('',(-4.5,25.5,4.));
#629=CARTESIAN_POINT('',(0.,0.,-4.));
#630=CARTESIAN_POINT('',(0.,0.,-4.));
#631=CARTESIAN_POINT('',(30.6,0.,-4.));
#632=CARTESIAN_POINT('',(-25.5,0.,-4.));
#633=CARTESIAN_POINT('',(-28.25,0.,-4.));
#634=CARTESIAN_POINT('',(0.,-25.5,-4.));
#635=CARTESIAN_POINT('',(-2.75,-25.5,-4.));
#636=CARTESIAN_POINT('',(25.5,0.,-4.));
#637=CARTESIAN_POINT('',(22.75,0.,-4.));
#638=CARTESIAN_POINT('',(0.,25.5,-4.));
#639=CARTESIAN_POINT('',(-2.75,25.5,-4.));
#640=CARTESIAN_POINT('',(0.,0.,-4.));
#641=CARTESIAN_POINT('',(20.,0.,-4.));
#642=CARTESIAN_POINT('',(0.,19.2,-56.));
#643=CARTESIAN_POINT('',(0.,0.,-56.));
#644=CARTESIAN_POINT('',(-19.2,0.,-56.));
#645=CARTESIAN_POINT('',(0.,0.,-55.2));
#646=CARTESIAN_POINT('',(0.,0.,-55.2));
#647=CARTESIAN_POINT('',(-20.,0.,-55.2));
#648=CARTESIAN_POINT('',(0.,0.,-56.));
#649=CARTESIAN_POINT('',(0.,25.5,-500.));
#650=CARTESIAN_POINT('',(0.,25.5,-1.09999999999999));
#651=CARTESIAN_POINT('',(-4.5,25.5,-1.09999999999999));
#652=CARTESIAN_POINT('',(0.,30.,-1.10000000000001));
#653=CARTESIAN_POINT('',(0.,25.5,-1.10000000000005));
#654=CARTESIAN_POINT('',(-2.75,25.5,-1.10000000000005));
#655=CARTESIAN_POINT('',(0.,25.5,-500.));
#656=CARTESIAN_POINT('',(25.5,0.,-500.));
#657=CARTESIAN_POINT('',(25.5,0.,-1.09999999999999));
#658=CARTESIAN_POINT('',(21.,0.,-1.09999999999999));
#659=CARTESIAN_POINT('',(25.5,4.5,-1.10000000000001));
#660=CARTESIAN_POINT('',(25.5,0.,-1.10000000000005));
#661=CARTESIAN_POINT('',(22.75,0.,-1.10000000000005));
#662=CARTESIAN_POINT('',(25.5,0.,-500.));
#663=CARTESIAN_POINT('',(0.,-25.5,-500.));
#664=CARTESIAN_POINT('',(0.,-25.5,-1.09999999999999));
#665=CARTESIAN_POINT('',(-4.5,-25.5,-1.09999999999999));
#666=CARTESIAN_POINT('',(0.,-21.,-1.10000000000001));
#667=CARTESIAN_POINT('',(0.,-25.5,-1.10000000000005));
#668=CARTESIAN_POINT('',(-2.75,-25.5,-1.10000000000005));
#669=CARTESIAN_POINT('',(0.,-25.5,-500.));
#670=CARTESIAN_POINT('',(-25.5,0.,-500.));
#671=CARTESIAN_POINT('',(-25.5,0.,-1.09999999999999));
#672=CARTESIAN_POINT('',(-30.,0.,-1.09999999999999));
#673=CARTESIAN_POINT('',(-25.5,4.5,-1.10000000000001));
#674=CARTESIAN_POINT('',(-25.5,0.,-1.10000000000005));
#675=CARTESIAN_POINT('',(-28.25,0.,-1.10000000000005));
#676=CARTESIAN_POINT('',(-25.5,0.,-500.));
#677=CARTESIAN_POINT('',(0.,0.,4.));
#678=CARTESIAN_POINT('',(0.,0.,-3.6));
#679=CARTESIAN_POINT('',(0.,12.4999999999999,2.40000000000001));
#680=CARTESIAN_POINT('',(0.,0.,2.40000000000001));
#681=CARTESIAN_POINT('',(-14.0999999999999,0.,2.40000000000001));
#682=CARTESIAN_POINT('',(0.,0.,4.2632564145606E-14));
#683=CARTESIAN_POINT('',(0.,0.,1.60000000000002));
#684=CARTESIAN_POINT('',(-14.0999999999999,0.,1.60000000000002));
#685=CARTESIAN_POINT('',(0.,14.0999999999999,1.60000000000002));
#686=CARTESIAN_POINT('',(0.,0.,1.60000000000002));
#687=CARTESIAN_POINT('',(-13.2999999999999,0.,1.60000000000002));
#688=CARTESIAN_POINT('',(0.,0.,4.2632564145606E-14));
#689=CARTESIAN_POINT('',(0.,0.,1.43114686768087E-14));
#690=CARTESIAN_POINT('',(-13.2999999999999,0.,1.43114686768087E-14));
#691=CARTESIAN_POINT('',(0.,13.2999999999999,2.84720164112073E-14));
#692=MECHANICAL_DESIGN_GEOMETRIC_PRESENTATION_REPRESENTATION('',(#387),
#693);
#693=(
GEOMETRIC_REPRESENTATION_CONTEXT(3)
GLOBAL_UNCERTAINTY_ASSIGNED_CONTEXT((#694))
GLOBAL_UNIT_ASSIGNED_CONTEXT((#697,#696,#695))
REPRESENTATION_CONTEXT('LMEFM25LUU','TOP_LEVEL_ASSEMBLY_PART')
);
#694=UNCERTAINTY_MEASURE_WITH_UNIT(LENGTH_MEASURE(0.005),#697,
'DISTANCE_ACCURACY_VALUE','Maximum Tolerance applied to model');
#695=(
NAMED_UNIT(*)
SI_UNIT($,.STERADIAN.)
SOLID_ANGLE_UNIT()
);
#696=(
NAMED_UNIT(*)
PLANE_ANGLE_UNIT()
SI_UNIT($,.RADIAN.)
);
#697=(
LENGTH_UNIT()
NAMED_UNIT(*)
SI_UNIT(.MILLI.,.METRE.)
);
#698=PRODUCT_DEFINITION_SHAPE('','',#699);
#699=PRODUCT_DEFINITION('','',#701,#700);
#700=DESIGN_CONTEXT('',#707,'design');
#701=PRODUCT_DEFINITION_FORMATION_WITH_SPECIFIED_SOURCE('','',#703,
 .NOT_KNOWN.);
#702=PRODUCT_RELATED_PRODUCT_CATEGORY('','',(#703));
#703=PRODUCT('LMEFM25LUU','LMEFM25LUU','LMEFM25LUU',(#705));
#704=PRODUCT_CATEGORY('','');
#705=MECHANICAL_CONTEXT('',#707,'mechanical');
#706=APPLICATION_PROTOCOL_DEFINITION('international standard',
'config_control_design',2010,#707);
#707=APPLICATION_CONTEXT(
'configuration controlled 3D designs of mechanical parts and assemblie
s');
ENDSEC;
END-ISO-10303-21;
