ISO-10303-21;
HEADER;
/* Generated by software containing ST-Developer
 * from STEP Tools, Inc. (www.steptools.com) 
 */
/* OPTION: using custom renumber hook */

FILE_DESCRIPTION(
/* description */ ('STEP AP203'),
/* implementation_level */ '2;1');

FILE_NAME(
/* name */ 'LMEF20UU',
/* time_stamp */ '2022-08-09T08:38:32+02:00',
/* author */ ('License CC BY-ND 4.0'),
/* organization */ ('CADENAS'),
/* preprocessor_version */ 'ST-DEVELOPER v18.102',
/* originating_system */ 'PARTsolutions',
/* authorisation */ '  ');

FILE_SCHEMA (('CONFIG_CONTROL_DESIGN'));
ENDSEC;

DATA;
#10=PROPERTY_DEFINITION_REPRESENTATION(#14,#12);
#11=PROPERTY_DEFINITION_REPRESENTATION(#15,#13);
#12=REPRESENTATION('',(#16),#673);
#13=REPRESENTATION('',(#17),#673);
#14=PROPERTY_DEFINITION('pmi validation property','',#678);
#15=PROPERTY_DEFINITION('pmi validation property','',#678);
#16=VALUE_REPRESENTATION_ITEM('number of annotations',COUNT_MEASURE(0.));
#17=VALUE_REPRESENTATION_ITEM('number of views',COUNT_MEASURE(0.));
#18=SHAPE_REPRESENTATION_RELATIONSHIP('','',#386,#19);
#19=ADVANCED_BREP_SHAPE_REPRESENTATION('',(#384),#673);
#20=TOROIDAL_SURFACE('',#412,15.2,0.799999999999997);
#21=CYLINDRICAL_SURFACE('',#400,27.);
#22=CYLINDRICAL_SURFACE('',#410,16.);
#23=CYLINDRICAL_SURFACE('',#413,2.75);
#24=CYLINDRICAL_SURFACE('',#417,4.5);
#25=CYLINDRICAL_SURFACE('',#418,2.75);
#26=CYLINDRICAL_SURFACE('',#422,4.5);
#27=CYLINDRICAL_SURFACE('',#423,2.75);
#28=CYLINDRICAL_SURFACE('',#427,4.5);
#29=CYLINDRICAL_SURFACE('',#428,2.75);
#30=CYLINDRICAL_SURFACE('',#432,4.5);
#31=CYLINDRICAL_SURFACE('',#436,10.6);
#32=CYLINDRICAL_SURFACE('',#437,11.2);
#33=CYLINDRICAL_SURFACE('',#441,10.);
#34=CYLINDRICAL_SURFACE('',#443,10.6);
#35=CYLINDRICAL_SURFACE('',#447,11.2);
#36=CONICAL_SURFACE('',#398,26.4343145750508,0.785398163397445);
#37=CONICAL_SURFACE('',#402,27.,0.785398163397445);
#38=ORIENTED_EDGE('',*,*,#104,.T.);
#39=ORIENTED_EDGE('',*,*,#105,.F.);
#40=ORIENTED_EDGE('',*,*,#106,.T.);
#41=ORIENTED_EDGE('',*,*,#107,.T.);
#42=ORIENTED_EDGE('',*,*,#108,.F.);
#43=ORIENTED_EDGE('',*,*,#109,.F.);
#44=ORIENTED_EDGE('',*,*,#110,.F.);
#45=ORIENTED_EDGE('',*,*,#111,.F.);
#46=ORIENTED_EDGE('',*,*,#112,.T.);
#47=ORIENTED_EDGE('',*,*,#106,.F.);
#48=ORIENTED_EDGE('',*,*,#113,.T.);
#49=ORIENTED_EDGE('',*,*,#112,.F.);
#50=ORIENTED_EDGE('',*,*,#114,.T.);
#51=ORIENTED_EDGE('',*,*,#113,.F.);
#52=ORIENTED_EDGE('',*,*,#115,.T.);
#53=ORIENTED_EDGE('',*,*,#116,.T.);
#54=ORIENTED_EDGE('',*,*,#117,.T.);
#55=ORIENTED_EDGE('',*,*,#118,.T.);
#56=ORIENTED_EDGE('',*,*,#119,.T.);
#57=ORIENTED_EDGE('',*,*,#114,.F.);
#58=ORIENTED_EDGE('',*,*,#120,.T.);
#59=ORIENTED_EDGE('',*,*,#115,.F.);
#60=ORIENTED_EDGE('',*,*,#105,.T.);
#61=ORIENTED_EDGE('',*,*,#120,.F.);
#62=ORIENTED_EDGE('',*,*,#121,.T.);
#63=ORIENTED_EDGE('',*,*,#116,.F.);
#64=ORIENTED_EDGE('',*,*,#122,.T.);
#65=ORIENTED_EDGE('',*,*,#121,.F.);
#66=ORIENTED_EDGE('',*,*,#107,.F.);
#67=ORIENTED_EDGE('',*,*,#122,.F.);
#68=ORIENTED_EDGE('',*,*,#123,.T.);
#69=ORIENTED_EDGE('',*,*,#119,.F.);
#70=ORIENTED_EDGE('',*,*,#124,.T.);
#71=ORIENTED_EDGE('',*,*,#123,.F.);
#72=ORIENTED_EDGE('',*,*,#110,.T.);
#73=ORIENTED_EDGE('',*,*,#124,.F.);
#74=ORIENTED_EDGE('',*,*,#125,.T.);
#75=ORIENTED_EDGE('',*,*,#118,.F.);
#76=ORIENTED_EDGE('',*,*,#126,.T.);
#77=ORIENTED_EDGE('',*,*,#125,.F.);
#78=ORIENTED_EDGE('',*,*,#109,.T.);
#79=ORIENTED_EDGE('',*,*,#126,.F.);
#80=ORIENTED_EDGE('',*,*,#127,.T.);
#81=ORIENTED_EDGE('',*,*,#117,.F.);
#82=ORIENTED_EDGE('',*,*,#128,.T.);
#83=ORIENTED_EDGE('',*,*,#127,.F.);
#84=ORIENTED_EDGE('',*,*,#108,.T.);
#85=ORIENTED_EDGE('',*,*,#128,.F.);
#86=ORIENTED_EDGE('',*,*,#129,.T.);
#87=ORIENTED_EDGE('',*,*,#130,.F.);
#88=ORIENTED_EDGE('',*,*,#111,.T.);
#89=ORIENTED_EDGE('',*,*,#129,.F.);
#90=ORIENTED_EDGE('',*,*,#130,.T.);
#91=ORIENTED_EDGE('',*,*,#131,.F.);
#92=ORIENTED_EDGE('',*,*,#131,.T.);
#93=ORIENTED_EDGE('',*,*,#132,.F.);
#94=ORIENTED_EDGE('',*,*,#132,.T.);
#95=ORIENTED_EDGE('',*,*,#133,.F.);
#96=ORIENTED_EDGE('',*,*,#134,.T.);
#97=ORIENTED_EDGE('',*,*,#104,.F.);
#98=ORIENTED_EDGE('',*,*,#135,.T.);
#99=ORIENTED_EDGE('',*,*,#134,.F.);
#100=ORIENTED_EDGE('',*,*,#136,.T.);
#101=ORIENTED_EDGE('',*,*,#135,.F.);
#102=ORIENTED_EDGE('',*,*,#133,.T.);
#103=ORIENTED_EDGE('',*,*,#136,.F.);
#104=EDGE_CURVE('',#137,#137,#170,.T.);
#105=EDGE_CURVE('',#138,#138,#171,.T.);
#106=EDGE_CURVE('',#139,#139,#172,.T.);
#107=EDGE_CURVE('',#140,#140,#173,.F.);
#108=EDGE_CURVE('',#141,#141,#174,.T.);
#109=EDGE_CURVE('',#142,#142,#175,.T.);
#110=EDGE_CURVE('',#143,#143,#176,.T.);
#111=EDGE_CURVE('',#144,#144,#177,.T.);
#112=EDGE_CURVE('',#145,#145,#178,.T.);
#113=EDGE_CURVE('',#146,#146,#179,.T.);
#114=EDGE_CURVE('',#147,#147,#180,.T.);
#115=EDGE_CURVE('',#148,#148,#181,.T.);
#116=EDGE_CURVE('',#149,#149,#182,.F.);
#117=EDGE_CURVE('',#150,#150,#183,.T.);
#118=EDGE_CURVE('',#151,#151,#184,.T.);
#119=EDGE_CURVE('',#152,#152,#185,.T.);
#120=EDGE_CURVE('',#153,#153,#186,.T.);
#121=EDGE_CURVE('',#154,#154,#187,.T.);
#122=EDGE_CURVE('',#155,#155,#188,.T.);
#123=EDGE_CURVE('',#156,#156,#189,.T.);
#124=EDGE_CURVE('',#157,#157,#190,.T.);
#125=EDGE_CURVE('',#158,#158,#191,.T.);
#126=EDGE_CURVE('',#159,#159,#192,.T.);
#127=EDGE_CURVE('',#160,#160,#193,.T.);
#128=EDGE_CURVE('',#161,#161,#194,.T.);
#129=EDGE_CURVE('',#162,#162,#195,.T.);
#130=EDGE_CURVE('',#163,#163,#196,.T.);
#131=EDGE_CURVE('',#164,#164,#197,.T.);
#132=EDGE_CURVE('',#165,#165,#198,.T.);
#133=EDGE_CURVE('',#166,#166,#199,.T.);
#134=EDGE_CURVE('',#167,#167,#200,.T.);
#135=EDGE_CURVE('',#168,#168,#201,.T.);
#136=EDGE_CURVE('',#169,#169,#202,.T.);
#137=VERTEX_POINT('',#579);
#138=VERTEX_POINT('',#581);
#139=VERTEX_POINT('',#584);
#140=VERTEX_POINT('',#586);
#141=VERTEX_POINT('',#588);
#142=VERTEX_POINT('',#590);
#143=VERTEX_POINT('',#592);
#144=VERTEX_POINT('',#594);
#145=VERTEX_POINT('',#597);
#146=VERTEX_POINT('',#600);
#147=VERTEX_POINT('',#603);
#148=VERTEX_POINT('',#606);
#149=VERTEX_POINT('',#608);
#150=VERTEX_POINT('',#610);
#151=VERTEX_POINT('',#612);
#152=VERTEX_POINT('',#614);
#153=VERTEX_POINT('',#617);
#154=VERTEX_POINT('',#621);
#155=VERTEX_POINT('',#624);
#156=VERTEX_POINT('',#628);
#157=VERTEX_POINT('',#631);
#158=VERTEX_POINT('',#635);
#159=VERTEX_POINT('',#638);
#160=VERTEX_POINT('',#642);
#161=VERTEX_POINT('',#645);
#162=VERTEX_POINT('',#649);
#163=VERTEX_POINT('',#651);
#164=VERTEX_POINT('',#655);
#165=VERTEX_POINT('',#658);
#166=VERTEX_POINT('',#661);
#167=VERTEX_POINT('',#664);
#168=VERTEX_POINT('',#667);
#169=VERTEX_POINT('',#670);
#170=CIRCLE('',#389,10.6);
#171=CIRCLE('',#390,15.2);
#172=CIRCLE('',#392,26.4343145750508);
#173=CIRCLE('',#393,4.5);
#174=CIRCLE('',#394,4.5);
#175=CIRCLE('',#395,4.5);
#176=CIRCLE('',#396,4.5);
#177=CIRCLE('',#397,10.6);
#178=CIRCLE('',#399,27.);
#179=CIRCLE('',#401,27.);
#180=CIRCLE('',#403,26.4343145750508);
#181=CIRCLE('',#405,16.);
#182=CIRCLE('',#406,2.75);
#183=CIRCLE('',#407,2.75);
#184=CIRCLE('',#408,2.75);
#185=CIRCLE('',#409,2.75);
#186=CIRCLE('',#411,16.);
#187=CIRCLE('',#414,2.75);
#188=CIRCLE('',#416,4.5);
#189=CIRCLE('',#419,2.75);
#190=CIRCLE('',#421,4.5);
#191=CIRCLE('',#424,2.75);
#192=CIRCLE('',#426,4.5);
#193=CIRCLE('',#429,2.75);
#194=CIRCLE('',#431,4.5);
#195=CIRCLE('',#434,10.6);
#196=CIRCLE('',#435,11.2);
#197=CIRCLE('',#438,11.2);
#198=CIRCLE('',#440,10.);
#199=CIRCLE('',#442,10.);
#200=CIRCLE('',#444,10.6);
#201=CIRCLE('',#446,11.2);
#202=CIRCLE('',#448,11.2);
#203=EDGE_LOOP('',(#38));
#204=EDGE_LOOP('',(#39));
#205=EDGE_LOOP('',(#40));
#206=EDGE_LOOP('',(#41));
#207=EDGE_LOOP('',(#42));
#208=EDGE_LOOP('',(#43));
#209=EDGE_LOOP('',(#44));
#210=EDGE_LOOP('',(#45));
#211=EDGE_LOOP('',(#46));
#212=EDGE_LOOP('',(#47));
#213=EDGE_LOOP('',(#48));
#214=EDGE_LOOP('',(#49));
#215=EDGE_LOOP('',(#50));
#216=EDGE_LOOP('',(#51));
#217=EDGE_LOOP('',(#52));
#218=EDGE_LOOP('',(#53));
#219=EDGE_LOOP('',(#54));
#220=EDGE_LOOP('',(#55));
#221=EDGE_LOOP('',(#56));
#222=EDGE_LOOP('',(#57));
#223=EDGE_LOOP('',(#58));
#224=EDGE_LOOP('',(#59));
#225=EDGE_LOOP('',(#60));
#226=EDGE_LOOP('',(#61));
#227=EDGE_LOOP('',(#62));
#228=EDGE_LOOP('',(#63));
#229=EDGE_LOOP('',(#64));
#230=EDGE_LOOP('',(#65));
#231=EDGE_LOOP('',(#66));
#232=EDGE_LOOP('',(#67));
#233=EDGE_LOOP('',(#68));
#234=EDGE_LOOP('',(#69));
#235=EDGE_LOOP('',(#70));
#236=EDGE_LOOP('',(#71));
#237=EDGE_LOOP('',(#72));
#238=EDGE_LOOP('',(#73));
#239=EDGE_LOOP('',(#74));
#240=EDGE_LOOP('',(#75));
#241=EDGE_LOOP('',(#76));
#242=EDGE_LOOP('',(#77));
#243=EDGE_LOOP('',(#78));
#244=EDGE_LOOP('',(#79));
#245=EDGE_LOOP('',(#80));
#246=EDGE_LOOP('',(#81));
#247=EDGE_LOOP('',(#82));
#248=EDGE_LOOP('',(#83));
#249=EDGE_LOOP('',(#84));
#250=EDGE_LOOP('',(#85));
#251=EDGE_LOOP('',(#86));
#252=EDGE_LOOP('',(#87));
#253=EDGE_LOOP('',(#88));
#254=EDGE_LOOP('',(#89));
#255=EDGE_LOOP('',(#90));
#256=EDGE_LOOP('',(#91));
#257=EDGE_LOOP('',(#92));
#258=EDGE_LOOP('',(#93));
#259=EDGE_LOOP('',(#94));
#260=EDGE_LOOP('',(#95));
#261=EDGE_LOOP('',(#96));
#262=EDGE_LOOP('',(#97));
#263=EDGE_LOOP('',(#98));
#264=EDGE_LOOP('',(#99));
#265=EDGE_LOOP('',(#100));
#266=EDGE_LOOP('',(#101));
#267=EDGE_LOOP('',(#102));
#268=EDGE_LOOP('',(#103));
#269=FACE_BOUND('',#203,.T.);
#270=FACE_BOUND('',#204,.T.);
#271=FACE_BOUND('',#205,.T.);
#272=FACE_BOUND('',#206,.T.);
#273=FACE_BOUND('',#207,.T.);
#274=FACE_BOUND('',#208,.T.);
#275=FACE_BOUND('',#209,.T.);
#276=FACE_BOUND('',#210,.T.);
#277=FACE_BOUND('',#211,.T.);
#278=FACE_BOUND('',#212,.T.);
#279=FACE_BOUND('',#213,.T.);
#280=FACE_BOUND('',#214,.T.);
#281=FACE_BOUND('',#215,.T.);
#282=FACE_BOUND('',#216,.T.);
#283=FACE_BOUND('',#217,.T.);
#284=FACE_BOUND('',#218,.T.);
#285=FACE_BOUND('',#219,.T.);
#286=FACE_BOUND('',#220,.T.);
#287=FACE_BOUND('',#221,.T.);
#288=FACE_BOUND('',#222,.T.);
#289=FACE_BOUND('',#223,.T.);
#290=FACE_BOUND('',#224,.T.);
#291=FACE_BOUND('',#225,.T.);
#292=FACE_BOUND('',#226,.T.);
#293=FACE_BOUND('',#227,.T.);
#294=FACE_BOUND('',#228,.T.);
#295=FACE_BOUND('',#229,.T.);
#296=FACE_BOUND('',#230,.T.);
#297=FACE_BOUND('',#231,.T.);
#298=FACE_BOUND('',#232,.T.);
#299=FACE_BOUND('',#233,.T.);
#300=FACE_BOUND('',#234,.T.);
#301=FACE_BOUND('',#235,.T.);
#302=FACE_BOUND('',#236,.T.);
#303=FACE_BOUND('',#237,.T.);
#304=FACE_BOUND('',#238,.T.);
#305=FACE_BOUND('',#239,.T.);
#306=FACE_BOUND('',#240,.T.);
#307=FACE_BOUND('',#241,.T.);
#308=FACE_BOUND('',#242,.T.);
#309=FACE_BOUND('',#243,.T.);
#310=FACE_BOUND('',#244,.T.);
#311=FACE_BOUND('',#245,.T.);
#312=FACE_BOUND('',#246,.T.);
#313=FACE_BOUND('',#247,.T.);
#314=FACE_BOUND('',#248,.T.);
#315=FACE_BOUND('',#249,.T.);
#316=FACE_BOUND('',#250,.T.);
#317=FACE_BOUND('',#251,.T.);
#318=FACE_BOUND('',#252,.T.);
#319=FACE_BOUND('',#253,.T.);
#320=FACE_BOUND('',#254,.T.);
#321=FACE_BOUND('',#255,.T.);
#322=FACE_BOUND('',#256,.T.);
#323=FACE_BOUND('',#257,.T.);
#324=FACE_BOUND('',#258,.T.);
#325=FACE_BOUND('',#259,.T.);
#326=FACE_BOUND('',#260,.T.);
#327=FACE_BOUND('',#261,.T.);
#328=FACE_BOUND('',#262,.T.);
#329=FACE_BOUND('',#263,.T.);
#330=FACE_BOUND('',#264,.T.);
#331=FACE_BOUND('',#265,.T.);
#332=FACE_BOUND('',#266,.T.);
#333=FACE_BOUND('',#267,.T.);
#334=FACE_BOUND('',#268,.T.);
#335=PLANE('',#388);
#336=PLANE('',#391);
#337=PLANE('',#404);
#338=PLANE('',#415);
#339=PLANE('',#420);
#340=PLANE('',#425);
#341=PLANE('',#430);
#342=PLANE('',#433);
#343=PLANE('',#439);
#344=PLANE('',#445);
#345=PLANE('',#449);
#346=ADVANCED_FACE('',(#269,#270),#335,.T.);
#347=ADVANCED_FACE('',(#271,#272,#273,#274,#275,#276),#336,.T.);
#348=ADVANCED_FACE('',(#277,#278),#36,.T.);
#349=ADVANCED_FACE('',(#279,#280),#21,.T.);
#350=ADVANCED_FACE('',(#281,#282),#37,.T.);
#351=ADVANCED_FACE('',(#283,#284,#285,#286,#287,#288),#337,.T.);
#352=ADVANCED_FACE('',(#289,#290),#22,.T.);
#353=ADVANCED_FACE('',(#291,#292),#20,.T.);
#354=ADVANCED_FACE('',(#293,#294),#23,.F.);
#355=ADVANCED_FACE('',(#295,#296),#338,.T.);
#356=ADVANCED_FACE('',(#297,#298),#24,.F.);
#357=ADVANCED_FACE('',(#299,#300),#25,.F.);
#358=ADVANCED_FACE('',(#301,#302),#339,.T.);
#359=ADVANCED_FACE('',(#303,#304),#26,.F.);
#360=ADVANCED_FACE('',(#305,#306),#27,.F.);
#361=ADVANCED_FACE('',(#307,#308),#340,.T.);
#362=ADVANCED_FACE('',(#309,#310),#28,.F.);
#363=ADVANCED_FACE('',(#311,#312),#29,.F.);
#364=ADVANCED_FACE('',(#313,#314),#341,.T.);
#365=ADVANCED_FACE('',(#315,#316),#30,.F.);
#366=ADVANCED_FACE('',(#317,#318),#342,.T.);
#367=ADVANCED_FACE('',(#319,#320),#31,.F.);
#368=ADVANCED_FACE('',(#321,#322),#32,.F.);
#369=ADVANCED_FACE('',(#323,#324),#343,.T.);
#370=ADVANCED_FACE('',(#325,#326),#33,.F.);
#371=ADVANCED_FACE('',(#327,#328),#34,.F.);
#372=ADVANCED_FACE('',(#329,#330),#344,.T.);
#373=ADVANCED_FACE('',(#331,#332),#35,.F.);
#374=ADVANCED_FACE('',(#333,#334),#345,.T.);
#375=CLOSED_SHELL('',(#346,#347,#348,#349,#350,#351,#352,#353,#354,#355,
#356,#357,#358,#359,#360,#361,#362,#363,#364,#365,#366,#367,#368,#369,#370,
#371,#372,#373,#374));
#376=STYLED_ITEM('',(#377),#384);
#377=PRESENTATION_STYLE_ASSIGNMENT((#378));
#378=SURFACE_STYLE_USAGE(.BOTH.,#379);
#379=SURFACE_SIDE_STYLE('',(#380));
#380=SURFACE_STYLE_FILL_AREA(#381);
#381=FILL_AREA_STYLE('',(#382));
#382=FILL_AREA_STYLE_COLOUR('',#383);
#383=COLOUR_RGB('',0.689999997615814,0.689999997615814,0.689999997615814);
#384=MANIFOLD_SOLID_BREP('LMEF20UU',#375);
#385=SHAPE_DEFINITION_REPRESENTATION(#678,#386);
#386=SHAPE_REPRESENTATION('LMEF20UU',(#387),#673);
#387=AXIS2_PLACEMENT_3D('',#576,#450,#451);
#388=AXIS2_PLACEMENT_3D('',#577,#452,#453);
#389=AXIS2_PLACEMENT_3D('',#578,#454,#455);
#390=AXIS2_PLACEMENT_3D('',#580,#456,#457);
#391=AXIS2_PLACEMENT_3D('',#582,#458,#459);
#392=AXIS2_PLACEMENT_3D('',#583,#460,#461);
#393=AXIS2_PLACEMENT_3D('',#585,#462,#463);
#394=AXIS2_PLACEMENT_3D('',#587,#464,#465);
#395=AXIS2_PLACEMENT_3D('',#589,#466,#467);
#396=AXIS2_PLACEMENT_3D('',#591,#468,#469);
#397=AXIS2_PLACEMENT_3D('',#593,#470,#471);
#398=AXIS2_PLACEMENT_3D('',#595,#472,#473);
#399=AXIS2_PLACEMENT_3D('',#596,#474,#475);
#400=AXIS2_PLACEMENT_3D('',#598,#476,#477);
#401=AXIS2_PLACEMENT_3D('',#599,#478,#479);
#402=AXIS2_PLACEMENT_3D('',#601,#480,#481);
#403=AXIS2_PLACEMENT_3D('',#602,#482,#483);
#404=AXIS2_PLACEMENT_3D('',#604,#484,#485);
#405=AXIS2_PLACEMENT_3D('',#605,#486,#487);
#406=AXIS2_PLACEMENT_3D('',#607,#488,#489);
#407=AXIS2_PLACEMENT_3D('',#609,#490,#491);
#408=AXIS2_PLACEMENT_3D('',#611,#492,#493);
#409=AXIS2_PLACEMENT_3D('',#613,#494,#495);
#410=AXIS2_PLACEMENT_3D('',#615,#496,#497);
#411=AXIS2_PLACEMENT_3D('',#616,#498,#499);
#412=AXIS2_PLACEMENT_3D('',#618,#500,#501);
#413=AXIS2_PLACEMENT_3D('',#619,#502,#503);
#414=AXIS2_PLACEMENT_3D('',#620,#504,#505);
#415=AXIS2_PLACEMENT_3D('',#622,#506,#507);
#416=AXIS2_PLACEMENT_3D('',#623,#508,#509);
#417=AXIS2_PLACEMENT_3D('',#625,#510,#511);
#418=AXIS2_PLACEMENT_3D('',#626,#512,#513);
#419=AXIS2_PLACEMENT_3D('',#627,#514,#515);
#420=AXIS2_PLACEMENT_3D('',#629,#516,#517);
#421=AXIS2_PLACEMENT_3D('',#630,#518,#519);
#422=AXIS2_PLACEMENT_3D('',#632,#520,#521);
#423=AXIS2_PLACEMENT_3D('',#633,#522,#523);
#424=AXIS2_PLACEMENT_3D('',#634,#524,#525);
#425=AXIS2_PLACEMENT_3D('',#636,#526,#527);
#426=AXIS2_PLACEMENT_3D('',#637,#528,#529);
#427=AXIS2_PLACEMENT_3D('',#639,#530,#531);
#428=AXIS2_PLACEMENT_3D('',#640,#532,#533);
#429=AXIS2_PLACEMENT_3D('',#641,#534,#535);
#430=AXIS2_PLACEMENT_3D('',#643,#536,#537);
#431=AXIS2_PLACEMENT_3D('',#644,#538,#539);
#432=AXIS2_PLACEMENT_3D('',#646,#540,#541);
#433=AXIS2_PLACEMENT_3D('',#647,#542,#543);
#434=AXIS2_PLACEMENT_3D('',#648,#544,#545);
#435=AXIS2_PLACEMENT_3D('',#650,#546,#547);
#436=AXIS2_PLACEMENT_3D('',#652,#548,#549);
#437=AXIS2_PLACEMENT_3D('',#653,#550,#551);
#438=AXIS2_PLACEMENT_3D('',#654,#552,#553);
#439=AXIS2_PLACEMENT_3D('',#656,#554,#555);
#440=AXIS2_PLACEMENT_3D('',#657,#556,#557);
#441=AXIS2_PLACEMENT_3D('',#659,#558,#559);
#442=AXIS2_PLACEMENT_3D('',#660,#560,#561);
#443=AXIS2_PLACEMENT_3D('',#662,#562,#563);
#444=AXIS2_PLACEMENT_3D('',#663,#564,#565);
#445=AXIS2_PLACEMENT_3D('',#665,#566,#567);
#446=AXIS2_PLACEMENT_3D('',#666,#568,#569);
#447=AXIS2_PLACEMENT_3D('',#668,#570,#571);
#448=AXIS2_PLACEMENT_3D('',#669,#572,#573);
#449=AXIS2_PLACEMENT_3D('',#671,#574,#575);
#450=DIRECTION('',(0.,0.,1.));
#451=DIRECTION('',(1.,0.,0.));
#452=DIRECTION('',(0.,0.,1.));
#453=DIRECTION('',(1.,0.,0.));
#454=DIRECTION('',(0.,0.,-1.));
#455=DIRECTION('',(-1.,0.,0.));
#456=DIRECTION('',(0.,0.,-1.));
#457=DIRECTION('',(-1.,0.,0.));
#458=DIRECTION('',(0.,0.,-1.));
#459=DIRECTION('',(-1.,0.,0.));
#460=DIRECTION('',(0.,0.,-1.));
#461=DIRECTION('',(-1.,0.,0.));
#462=DIRECTION('',(0.,0.,-1.));
#463=DIRECTION('',(-1.,0.,0.));
#464=DIRECTION('',(0.,0.,-1.));
#465=DIRECTION('',(-1.,0.,0.));
#466=DIRECTION('',(0.,0.,-1.));
#467=DIRECTION('',(-1.,0.,0.));
#468=DIRECTION('',(0.,0.,-1.));
#469=DIRECTION('',(-1.,0.,0.));
#470=DIRECTION('',(0.,0.,-1.));
#471=DIRECTION('',(-1.,0.,0.));
#472=DIRECTION('',(0.,0.,1.));
#473=DIRECTION('',(1.,0.,0.));
#474=DIRECTION('',(0.,0.,-1.));
#475=DIRECTION('',(-1.,0.,0.));
#476=DIRECTION('',(0.,0.,-1.));
#477=DIRECTION('',(-1.,0.,0.));
#478=DIRECTION('',(0.,0.,-1.));
#479=DIRECTION('',(-1.,0.,0.));
#480=DIRECTION('',(0.,0.,-1.));
#481=DIRECTION('',(-1.,0.,0.));
#482=DIRECTION('',(0.,0.,-1.));
#483=DIRECTION('',(-1.,0.,0.));
#484=DIRECTION('',(0.,0.,1.));
#485=DIRECTION('',(1.,0.,0.));
#486=DIRECTION('',(0.,0.,-1.));
#487=DIRECTION('',(-1.,0.,0.));
#488=DIRECTION('',(0.,0.,1.));
#489=DIRECTION('',(1.,0.,0.));
#490=DIRECTION('',(0.,0.,-1.));
#491=DIRECTION('',(-1.,0.,0.));
#492=DIRECTION('',(0.,0.,-1.));
#493=DIRECTION('',(-1.,0.,0.));
#494=DIRECTION('',(0.,0.,-1.));
#495=DIRECTION('',(-1.,0.,0.));
#496=DIRECTION('',(0.,0.,-1.));
#497=DIRECTION('',(-1.,0.,0.));
#498=DIRECTION('',(0.,0.,-1.));
#499=DIRECTION('',(-1.,0.,0.));
#500=DIRECTION('',(0.,0.,-1.));
#501=DIRECTION('',(-1.,0.,0.));
#502=DIRECTION('',(0.,0.,-1.));
#503=DIRECTION('',(-1.,0.,0.));
#504=DIRECTION('',(0.,0.,-1.));
#505=DIRECTION('',(-1.,0.,0.));
#506=DIRECTION('',(0.,0.,-1.));
#507=DIRECTION('',(-1.,0.,0.));
#508=DIRECTION('',(0.,0.,-1.));
#509=DIRECTION('',(-1.,0.,0.));
#510=DIRECTION('',(0.,0.,-1.));
#511=DIRECTION('',(-1.,0.,0.));
#512=DIRECTION('',(0.,0.,-1.));
#513=DIRECTION('',(-1.,0.,0.));
#514=DIRECTION('',(0.,0.,-1.));
#515=DIRECTION('',(-1.,0.,0.));
#516=DIRECTION('',(0.,0.,-1.));
#517=DIRECTION('',(-1.,0.,0.));
#518=DIRECTION('',(0.,0.,-1.));
#519=DIRECTION('',(-1.,0.,0.));
#520=DIRECTION('',(0.,0.,-1.));
#521=DIRECTION('',(-1.,0.,0.));
#522=DIRECTION('',(0.,0.,-1.));
#523=DIRECTION('',(-1.,0.,0.));
#524=DIRECTION('',(0.,0.,-1.));
#525=DIRECTION('',(-1.,0.,0.));
#526=DIRECTION('',(0.,0.,-1.));
#527=DIRECTION('',(-1.,0.,0.));
#528=DIRECTION('',(0.,0.,-1.));
#529=DIRECTION('',(-1.,0.,0.));
#530=DIRECTION('',(0.,0.,-1.));
#531=DIRECTION('',(-1.,0.,0.));
#532=DIRECTION('',(0.,0.,-1.));
#533=DIRECTION('',(-1.,0.,0.));
#534=DIRECTION('',(0.,0.,-1.));
#535=DIRECTION('',(-1.,0.,0.));
#536=DIRECTION('',(0.,0.,-1.));
#537=DIRECTION('',(-1.,0.,0.));
#538=DIRECTION('',(0.,0.,-1.));
#539=DIRECTION('',(-1.,0.,0.));
#540=DIRECTION('',(0.,0.,-1.));
#541=DIRECTION('',(-1.,0.,0.));
#542=DIRECTION('',(0.,0.,1.));
#543=DIRECTION('',(1.,0.,0.));
#544=DIRECTION('',(0.,0.,-1.));
#545=DIRECTION('',(-1.,0.,0.));
#546=DIRECTION('',(0.,0.,-1.));
#547=DIRECTION('',(-1.,0.,0.));
#548=DIRECTION('',(0.,0.,-1.));
#549=DIRECTION('',(-1.,0.,0.));
#550=DIRECTION('',(0.,0.,-1.));
#551=DIRECTION('',(-1.,0.,0.));
#552=DIRECTION('',(0.,0.,-1.));
#553=DIRECTION('',(-1.,0.,0.));
#554=DIRECTION('',(0.,0.,-1.));
#555=DIRECTION('',(-1.,0.,0.));
#556=DIRECTION('',(0.,0.,-1.));
#557=DIRECTION('',(-1.,0.,0.));
#558=DIRECTION('',(0.,0.,-1.));
#559=DIRECTION('',(-1.,0.,0.));
#560=DIRECTION('',(0.,0.,-1.));
#561=DIRECTION('',(-1.,0.,0.));
#562=DIRECTION('',(0.,0.,-1.));
#563=DIRECTION('',(-1.,0.,0.));
#564=DIRECTION('',(0.,0.,-1.));
#565=DIRECTION('',(-1.,0.,0.));
#566=DIRECTION('',(0.,0.,-1.));
#567=DIRECTION('',(-1.,0.,0.));
#568=DIRECTION('',(0.,0.,-1.));
#569=DIRECTION('',(-1.,0.,0.));
#570=DIRECTION('',(0.,0.,-1.));
#571=DIRECTION('',(-1.,0.,0.));
#572=DIRECTION('',(0.,0.,-1.));
#573=DIRECTION('',(-1.,0.,0.));
#574=DIRECTION('',(0.,0.,1.));
#575=DIRECTION('',(1.,0.,0.));
#576=CARTESIAN_POINT('',(0.,0.,0.));
#577=CARTESIAN_POINT('',(0.,15.2,45.));
#578=CARTESIAN_POINT('',(0.,0.,45.));
#579=CARTESIAN_POINT('',(-10.6,0.,45.));
#580=CARTESIAN_POINT('',(0.,0.,45.));
#581=CARTESIAN_POINT('',(-15.2,0.,45.));
#582=CARTESIAN_POINT('',(0.,10.,3.46944695195361E-15));
#583=CARTESIAN_POINT('',(0.,0.,0.));
#584=CARTESIAN_POINT('',(-26.4343145750508,0.,0.));
#585=CARTESIAN_POINT('',(0.,21.5,0.));
#586=CARTESIAN_POINT('',(-4.5,21.5,0.));
#587=CARTESIAN_POINT('',(-21.5,0.,0.));
#588=CARTESIAN_POINT('',(-26.,0.,0.));
#589=CARTESIAN_POINT('',(0.,-21.5,0.));
#590=CARTESIAN_POINT('',(-4.5,-21.5,0.));
#591=CARTESIAN_POINT('',(21.5,0.,0.));
#592=CARTESIAN_POINT('',(17.,0.,0.));
#593=CARTESIAN_POINT('',(0.,0.,-7.15573433840433E-15));
#594=CARTESIAN_POINT('',(-10.6,0.,-7.15573433840433E-15));
#595=CARTESIAN_POINT('',(0.,0.,0.));
#596=CARTESIAN_POINT('',(0.,0.,0.565685424949239));
#597=CARTESIAN_POINT('',(-27.,0.,0.565685424949239));
#598=CARTESIAN_POINT('',(0.,0.,-50.));
#599=CARTESIAN_POINT('',(0.,0.,7.43431457505076));
#600=CARTESIAN_POINT('',(-27.,0.,7.43431457505076));
#601=CARTESIAN_POINT('',(0.,0.,7.43431457505076));
#602=CARTESIAN_POINT('',(0.,0.,8.));
#603=CARTESIAN_POINT('',(-26.4343145750508,0.,8.));
#604=CARTESIAN_POINT('',(0.,26.4343145750508,8.));
#605=CARTESIAN_POINT('',(0.,0.,8.));
#606=CARTESIAN_POINT('',(-16.,0.,8.));
#607=CARTESIAN_POINT('',(0.,21.5,8.));
#608=CARTESIAN_POINT('',(2.75,21.5,8.));
#609=CARTESIAN_POINT('',(-21.5,0.,8.));
#610=CARTESIAN_POINT('',(-24.25,0.,8.));
#611=CARTESIAN_POINT('',(0.,-21.5,8.));
#612=CARTESIAN_POINT('',(-2.75,-21.5,8.));
#613=CARTESIAN_POINT('',(21.5,0.,8.));
#614=CARTESIAN_POINT('',(18.75,0.,8.));
#615=CARTESIAN_POINT('',(0.,0.,-50.));
#616=CARTESIAN_POINT('',(0.,0.,44.2));
#617=CARTESIAN_POINT('',(-16.,0.,44.2));
#618=CARTESIAN_POINT('',(0.,0.,44.2));
#619=CARTESIAN_POINT('',(0.,21.5,-50.));
#620=CARTESIAN_POINT('',(0.,21.5,5.1));
#621=CARTESIAN_POINT('',(-2.75,21.5,5.1));
#622=CARTESIAN_POINT('',(0.,24.25,5.1));
#623=CARTESIAN_POINT('',(0.,21.5,5.1));
#624=CARTESIAN_POINT('',(-4.5,21.5,5.1));
#625=CARTESIAN_POINT('',(0.,21.5,-50.));
#626=CARTESIAN_POINT('',(21.5,0.,-50.));
#627=CARTESIAN_POINT('',(21.5,0.,5.1));
#628=CARTESIAN_POINT('',(18.75,0.,5.1));
#629=CARTESIAN_POINT('',(21.5,2.75,5.1));
#630=CARTESIAN_POINT('',(21.5,0.,5.1));
#631=CARTESIAN_POINT('',(17.,0.,5.1));
#632=CARTESIAN_POINT('',(21.5,0.,-50.));
#633=CARTESIAN_POINT('',(0.,-21.5,-50.));
#634=CARTESIAN_POINT('',(0.,-21.5,5.1));
#635=CARTESIAN_POINT('',(-2.75,-21.5,5.1));
#636=CARTESIAN_POINT('',(0.,-18.75,5.1));
#637=CARTESIAN_POINT('',(0.,-21.5,5.1));
#638=CARTESIAN_POINT('',(-4.5,-21.5,5.1));
#639=CARTESIAN_POINT('',(0.,-21.5,-50.));
#640=CARTESIAN_POINT('',(-21.5,0.,-50.));
#641=CARTESIAN_POINT('',(-21.5,0.,5.1));
#642=CARTESIAN_POINT('',(-24.25,0.,5.1));
#643=CARTESIAN_POINT('',(-21.5,2.75,5.1));
#644=CARTESIAN_POINT('',(-21.5,0.,5.1));
#645=CARTESIAN_POINT('',(-26.,0.,5.1));
#646=CARTESIAN_POINT('',(-21.5,0.,-50.));
#647=CARTESIAN_POINT('',(0.,11.2,1.09999999999999));
#648=CARTESIAN_POINT('',(0.,0.,1.09999999999999));
#649=CARTESIAN_POINT('',(-10.6,0.,1.09999999999999));
#650=CARTESIAN_POINT('',(0.,0.,1.09999999999999));
#651=CARTESIAN_POINT('',(-11.2,0.,1.09999999999999));
#652=CARTESIAN_POINT('',(0.,0.,-2.1316282072803E-14));
#653=CARTESIAN_POINT('',(0.,0.,-2.1316282072803E-14));
#654=CARTESIAN_POINT('',(0.,0.,1.65));
#655=CARTESIAN_POINT('',(-11.2,0.,1.65));
#656=CARTESIAN_POINT('',(0.,10.,1.64999999999999));
#657=CARTESIAN_POINT('',(0.,0.,1.64999999999999));
#658=CARTESIAN_POINT('',(-10.,0.,1.64999999999999));
#659=CARTESIAN_POINT('',(0.,0.,-50.));
#660=CARTESIAN_POINT('',(0.,0.,43.35));
#661=CARTESIAN_POINT('',(-10.,0.,43.35));
#662=CARTESIAN_POINT('',(0.,0.,-2.1316282072803E-14));
#663=CARTESIAN_POINT('',(0.,0.,43.9));
#664=CARTESIAN_POINT('',(-10.6,0.,43.9));
#665=CARTESIAN_POINT('',(0.,10.6,43.9));
#666=CARTESIAN_POINT('',(0.,0.,43.9));
#667=CARTESIAN_POINT('',(-11.2,0.,43.9));
#668=CARTESIAN_POINT('',(0.,0.,-2.1316282072803E-14));
#669=CARTESIAN_POINT('',(0.,0.,43.35));
#670=CARTESIAN_POINT('',(-11.2,0.,43.35));
#671=CARTESIAN_POINT('',(0.,11.2,43.35));
#672=MECHANICAL_DESIGN_GEOMETRIC_PRESENTATION_REPRESENTATION('',(#376),
#673);
#673=(
GEOMETRIC_REPRESENTATION_CONTEXT(3)
GLOBAL_UNCERTAINTY_ASSIGNED_CONTEXT((#674))
GLOBAL_UNIT_ASSIGNED_CONTEXT((#677,#676,#675))
REPRESENTATION_CONTEXT('LMEF20UU','TOP_LEVEL_ASSEMBLY_PART')
);
#674=UNCERTAINTY_MEASURE_WITH_UNIT(LENGTH_MEASURE(0.005),#677,
'DISTANCE_ACCURACY_VALUE','Maximum Tolerance applied to model');
#675=(
NAMED_UNIT(*)
SI_UNIT($,.STERADIAN.)
SOLID_ANGLE_UNIT()
);
#676=(
NAMED_UNIT(*)
PLANE_ANGLE_UNIT()
SI_UNIT($,.RADIAN.)
);
#677=(
LENGTH_UNIT()
NAMED_UNIT(*)
SI_UNIT(.MILLI.,.METRE.)
);
#678=PRODUCT_DEFINITION_SHAPE('','',#679);
#679=PRODUCT_DEFINITION('','',#681,#680);
#680=DESIGN_CONTEXT('',#687,'design');
#681=PRODUCT_DEFINITION_FORMATION_WITH_SPECIFIED_SOURCE('','',#683,
 .NOT_KNOWN.);
#682=PRODUCT_RELATED_PRODUCT_CATEGORY('','',(#683));
#683=PRODUCT('LMEF20UU','LMEF20UU','LMEF20UU',(#685));
#684=PRODUCT_CATEGORY('','');
#685=MECHANICAL_CONTEXT('',#687,'mechanical');
#686=APPLICATION_PROTOCOL_DEFINITION('international standard',
'config_control_design',2010,#687);
#687=APPLICATION_CONTEXT(
'configuration controlled 3D designs of mechanical parts and assemblie
s');
ENDSEC;
END-ISO-10303-21;
