ISO-10303-21;
HEADER;
/* Generated by software containing ST-Developer
 * from STEP Tools, Inc. (www.steptools.com) 
 */
/* OPTION: using custom renumber hook */

FILE_DESCRIPTION(
/* description */ ('STEP AP203'),
/* implementation_level */ '2;1');

FILE_NAME(
/* name */ 'LME12UU-AJ',
/* time_stamp */ '2022-07-21T04:09:06+02:00',
/* author */ ('License CC BY-ND 4.0'),
/* organization */ ('CADENAS'),
/* preprocessor_version */ 'ST-DEVELOPER v18.102',
/* originating_system */ 'PARTsolutions',
/* authorisation */ '  ');

FILE_SCHEMA (('CONFIG_CONTROL_DESIGN'));
ENDSEC;

DATA;
#10=PROPERTY_DEFINITION_REPRESENTATION(#14,#12);
#11=PROPERTY_DEFINITION_REPRESENTATION(#15,#13);
#12=REPRESENTATION('',(#16),#711);
#13=REPRESENTATION('',(#17),#711);
#14=PROPERTY_DEFINITION('pmi validation property','',#716);
#15=PROPERTY_DEFINITION('pmi validation property','',#716);
#16=VALUE_REPRESENTATION_ITEM('number of annotations',COUNT_MEASURE(0.));
#17=VALUE_REPRESENTATION_ITEM('number of views',COUNT_MEASURE(0.));
#18=SHAPE_REPRESENTATION_RELATIONSHIP('','',#411,#19);
#19=ADVANCED_BREP_SHAPE_REPRESENTATION('',(#409),#711);
#20=PLANE('',#423);
#21=PLANE('',#426);
#22=PLANE('',#430);
#23=PLANE('',#432);
#24=PLANE('',#434);
#25=PLANE('',#437);
#26=PLANE('',#441);
#27=PLANE('',#442);
#28=PLANE('',#443);
#29=PLANE('',#444);
#30=PLANE('',#445);
#31=PLANE('',#446);
#32=PLANE('',#447);
#33=PLANE('',#453);
#34=PLANE('',#459);
#35=PLANE('',#463);
#36=B_SPLINE_CURVE_WITH_KNOTS('',3,(#599,#600,#601,#602),.UNSPECIFIED.,
 .F.,.F.,(4,4),(1.9716546055917E-7,0.000782243841072161),.UNSPECIFIED.);
#37=B_SPLINE_CURVE_WITH_KNOTS('',3,(#606,#607,#608,#609),.UNSPECIFIED.,
 .F.,.F.,(4,4),(2.78846192743489E-7,0.000782326838011181),.UNSPECIFIED.);
#38=B_SPLINE_CURVE_WITH_KNOTS('',3,(#614,#615,#616,#617),.UNSPECIFIED.,
 .F.,.F.,(4,4),(2.78846192738652E-7,0.00078232683801112),.UNSPECIFIED.);
#39=B_SPLINE_CURVE_WITH_KNOTS('',3,(#621,#622,#623,#624),.UNSPECIFIED.,
 .F.,.F.,(4,4),(1.97165460613727E-7,0.000782243841072162),.UNSPECIFIED.);
#40=TOROIDAL_SURFACE('',#416,10.5,0.500000000000002);
#41=TOROIDAL_SURFACE('',#418,10.5,0.500000000000006);
#42=LINE('',#593,#62);
#43=LINE('',#597,#63);
#44=LINE('',#626,#64);
#45=LINE('',#630,#65);
#46=LINE('',#632,#66);
#47=LINE('',#637,#67);
#48=LINE('',#641,#68);
#49=LINE('',#645,#69);
#50=LINE('',#647,#70);
#51=LINE('',#651,#71);
#52=LINE('',#653,#72);
#53=LINE('',#655,#73);
#54=LINE('',#659,#74);
#55=LINE('',#663,#75);
#56=LINE('',#673,#76);
#57=LINE('',#674,#77);
#58=LINE('',#675,#78);
#59=LINE('',#676,#79);
#60=LINE('',#677,#80);
#61=LINE('',#678,#81);
#62=VECTOR('',#470,1000.);
#63=VECTOR('',#473,1000.);
#64=VECTOR('',#486,1000.);
#65=VECTOR('',#489,1000.);
#66=VECTOR('',#492,1000.);
#67=VECTOR('',#495,1000.);
#68=VECTOR('',#500,1000.);
#69=VECTOR('',#503,1000.);
#70=VECTOR('',#506,1000.);
#71=VECTOR('',#509,1000.);
#72=VECTOR('',#512,1000.);
#73=VECTOR('',#513,1000.);
#74=VECTOR('',#518,1000.);
#75=VECTOR('',#521,1000.);
#76=VECTOR('',#536,1000.);
#77=VECTOR('',#537,1000.);
#78=VECTOR('',#538,1000.);
#79=VECTOR('',#539,1000.);
#80=VECTOR('',#540,1000.);
#81=VECTOR('',#541,1000.);
#82=ORIENTED_EDGE('',*,*,#178,.F.);
#83=ORIENTED_EDGE('',*,*,#179,.F.);
#84=ORIENTED_EDGE('',*,*,#180,.T.);
#85=ORIENTED_EDGE('',*,*,#181,.T.);
#86=ORIENTED_EDGE('',*,*,#180,.F.);
#87=ORIENTED_EDGE('',*,*,#182,.T.);
#88=ORIENTED_EDGE('',*,*,#183,.T.);
#89=ORIENTED_EDGE('',*,*,#184,.T.);
#90=ORIENTED_EDGE('',*,*,#185,.F.);
#91=ORIENTED_EDGE('',*,*,#186,.T.);
#92=ORIENTED_EDGE('',*,*,#187,.T.);
#93=ORIENTED_EDGE('',*,*,#188,.T.);
#94=ORIENTED_EDGE('',*,*,#187,.F.);
#95=ORIENTED_EDGE('',*,*,#189,.F.);
#96=ORIENTED_EDGE('',*,*,#190,.F.);
#97=ORIENTED_EDGE('',*,*,#191,.T.);
#98=ORIENTED_EDGE('',*,*,#192,.F.);
#99=ORIENTED_EDGE('',*,*,#193,.T.);
#100=ORIENTED_EDGE('',*,*,#194,.F.);
#101=ORIENTED_EDGE('',*,*,#195,.F.);
#102=ORIENTED_EDGE('',*,*,#196,.F.);
#103=ORIENTED_EDGE('',*,*,#197,.T.);
#104=ORIENTED_EDGE('',*,*,#198,.F.);
#105=ORIENTED_EDGE('',*,*,#190,.T.);
#106=ORIENTED_EDGE('',*,*,#193,.F.);
#107=ORIENTED_EDGE('',*,*,#199,.F.);
#108=ORIENTED_EDGE('',*,*,#200,.T.);
#109=ORIENTED_EDGE('',*,*,#201,.T.);
#110=ORIENTED_EDGE('',*,*,#202,.F.);
#111=ORIENTED_EDGE('',*,*,#178,.T.);
#112=ORIENTED_EDGE('',*,*,#203,.F.);
#113=ORIENTED_EDGE('',*,*,#204,.F.);
#114=ORIENTED_EDGE('',*,*,#205,.F.);
#115=ORIENTED_EDGE('',*,*,#206,.T.);
#116=ORIENTED_EDGE('',*,*,#207,.F.);
#117=ORIENTED_EDGE('',*,*,#200,.F.);
#118=ORIENTED_EDGE('',*,*,#208,.T.);
#119=ORIENTED_EDGE('',*,*,#183,.F.);
#120=ORIENTED_EDGE('',*,*,#209,.F.);
#121=ORIENTED_EDGE('',*,*,#210,.F.);
#122=ORIENTED_EDGE('',*,*,#185,.T.);
#123=ORIENTED_EDGE('',*,*,#211,.F.);
#124=ORIENTED_EDGE('',*,*,#206,.F.);
#125=ORIENTED_EDGE('',*,*,#212,.T.);
#126=ORIENTED_EDGE('',*,*,#195,.T.);
#127=ORIENTED_EDGE('',*,*,#213,.F.);
#128=ORIENTED_EDGE('',*,*,#197,.F.);
#129=ORIENTED_EDGE('',*,*,#214,.T.);
#130=ORIENTED_EDGE('',*,*,#210,.T.);
#131=ORIENTED_EDGE('',*,*,#215,.F.);
#132=ORIENTED_EDGE('',*,*,#204,.T.);
#133=ORIENTED_EDGE('',*,*,#216,.F.);
#134=ORIENTED_EDGE('',*,*,#209,.T.);
#135=ORIENTED_EDGE('',*,*,#217,.T.);
#136=ORIENTED_EDGE('',*,*,#192,.T.);
#137=ORIENTED_EDGE('',*,*,#212,.F.);
#138=ORIENTED_EDGE('',*,*,#205,.T.);
#139=ORIENTED_EDGE('',*,*,#199,.T.);
#140=ORIENTED_EDGE('',*,*,#194,.T.);
#141=ORIENTED_EDGE('',*,*,#201,.F.);
#142=ORIENTED_EDGE('',*,*,#207,.T.);
#143=ORIENTED_EDGE('',*,*,#213,.T.);
#144=ORIENTED_EDGE('',*,*,#179,.T.);
#145=ORIENTED_EDGE('',*,*,#202,.T.);
#146=ORIENTED_EDGE('',*,*,#217,.F.);
#147=ORIENTED_EDGE('',*,*,#182,.F.);
#148=ORIENTED_EDGE('',*,*,#216,.T.);
#149=ORIENTED_EDGE('',*,*,#203,.T.);
#150=ORIENTED_EDGE('',*,*,#181,.F.);
#151=ORIENTED_EDGE('',*,*,#184,.F.);
#152=ORIENTED_EDGE('',*,*,#191,.F.);
#153=ORIENTED_EDGE('',*,*,#198,.T.);
#154=ORIENTED_EDGE('',*,*,#215,.T.);
#155=ORIENTED_EDGE('',*,*,#188,.F.);
#156=ORIENTED_EDGE('',*,*,#214,.F.);
#157=ORIENTED_EDGE('',*,*,#196,.T.);
#158=ORIENTED_EDGE('',*,*,#189,.T.);
#159=ORIENTED_EDGE('',*,*,#186,.F.);
#160=ORIENTED_EDGE('',*,*,#218,.T.);
#161=ORIENTED_EDGE('',*,*,#219,.F.);
#162=ORIENTED_EDGE('',*,*,#211,.T.);
#163=ORIENTED_EDGE('',*,*,#218,.F.);
#164=ORIENTED_EDGE('',*,*,#219,.T.);
#165=ORIENTED_EDGE('',*,*,#220,.F.);
#166=ORIENTED_EDGE('',*,*,#220,.T.);
#167=ORIENTED_EDGE('',*,*,#221,.F.);
#168=ORIENTED_EDGE('',*,*,#221,.T.);
#169=ORIENTED_EDGE('',*,*,#222,.F.);
#170=ORIENTED_EDGE('',*,*,#223,.T.);
#171=ORIENTED_EDGE('',*,*,#208,.F.);
#172=ORIENTED_EDGE('',*,*,#224,.T.);
#173=ORIENTED_EDGE('',*,*,#223,.F.);
#174=ORIENTED_EDGE('',*,*,#225,.T.);
#175=ORIENTED_EDGE('',*,*,#224,.F.);
#176=ORIENTED_EDGE('',*,*,#222,.T.);
#177=ORIENTED_EDGE('',*,*,#225,.F.);
#178=EDGE_CURVE('',#226,#227,#260,.F.);
#179=EDGE_CURVE('',#228,#226,#42,.T.);
#180=EDGE_CURVE('',#228,#229,#261,.T.);
#181=EDGE_CURVE('',#229,#227,#43,.T.);
#182=EDGE_CURVE('',#228,#230,#36,.T.);
#183=EDGE_CURVE('',#230,#231,#262,.T.);
#184=EDGE_CURVE('',#231,#229,#37,.T.);
#185=EDGE_CURVE('',#232,#233,#263,.T.);
#186=EDGE_CURVE('',#232,#234,#38,.T.);
#187=EDGE_CURVE('',#234,#235,#264,.T.);
#188=EDGE_CURVE('',#235,#233,#39,.T.);
#189=EDGE_CURVE('',#236,#234,#44,.T.);
#190=EDGE_CURVE('',#237,#236,#265,.F.);
#191=EDGE_CURVE('',#237,#235,#45,.T.);
#192=EDGE_CURVE('',#238,#239,#46,.T.);
#193=EDGE_CURVE('',#238,#240,#266,.T.);
#194=EDGE_CURVE('',#241,#240,#47,.T.);
#195=EDGE_CURVE('',#239,#241,#267,.T.);
#196=EDGE_CURVE('',#242,#236,#48,.T.);
#197=EDGE_CURVE('',#242,#243,#268,.T.);
#198=EDGE_CURVE('',#237,#243,#49,.T.);
#199=EDGE_CURVE('',#244,#238,#50,.T.);
#200=EDGE_CURVE('',#244,#245,#269,.T.);
#201=EDGE_CURVE('',#245,#240,#51,.T.);
#202=EDGE_CURVE('',#226,#246,#52,.T.);
#203=EDGE_CURVE('',#247,#227,#53,.T.);
#204=EDGE_CURVE('',#246,#247,#270,.T.);
#205=EDGE_CURVE('',#248,#244,#54,.T.);
#206=EDGE_CURVE('',#248,#249,#271,.T.);
#207=EDGE_CURVE('',#245,#249,#55,.T.);
#208=EDGE_CURVE('',#250,#250,#272,.T.);
#209=EDGE_CURVE('',#231,#230,#273,.F.);
#210=EDGE_CURVE('',#232,#233,#274,.T.);
#211=EDGE_CURVE('',#251,#251,#275,.T.);
#212=EDGE_CURVE('',#248,#239,#56,.T.);
#213=EDGE_CURVE('',#249,#241,#57,.T.);
#214=EDGE_CURVE('',#242,#232,#58,.T.);
#215=EDGE_CURVE('',#243,#233,#59,.T.);
#216=EDGE_CURVE('',#231,#247,#60,.T.);
#217=EDGE_CURVE('',#230,#246,#61,.T.);
#218=EDGE_CURVE('',#252,#252,#276,.T.);
#219=EDGE_CURVE('',#253,#253,#277,.T.);
#220=EDGE_CURVE('',#254,#254,#278,.T.);
#221=EDGE_CURVE('',#255,#255,#279,.T.);
#222=EDGE_CURVE('',#256,#256,#280,.T.);
#223=EDGE_CURVE('',#257,#257,#281,.T.);
#224=EDGE_CURVE('',#258,#258,#282,.T.);
#225=EDGE_CURVE('',#259,#259,#283,.T.);
#226=VERTEX_POINT('',#591);
#227=VERTEX_POINT('',#592);
#228=VERTEX_POINT('',#594);
#229=VERTEX_POINT('',#596);
#230=VERTEX_POINT('',#603);
#231=VERTEX_POINT('',#605);
#232=VERTEX_POINT('',#612);
#233=VERTEX_POINT('',#613);
#234=VERTEX_POINT('',#618);
#235=VERTEX_POINT('',#620);
#236=VERTEX_POINT('',#627);
#237=VERTEX_POINT('',#629);
#238=VERTEX_POINT('',#633);
#239=VERTEX_POINT('',#634);
#240=VERTEX_POINT('',#636);
#241=VERTEX_POINT('',#638);
#242=VERTEX_POINT('',#642);
#243=VERTEX_POINT('',#644);
#244=VERTEX_POINT('',#648);
#245=VERTEX_POINT('',#650);
#246=VERTEX_POINT('',#654);
#247=VERTEX_POINT('',#656);
#248=VERTEX_POINT('',#660);
#249=VERTEX_POINT('',#662);
#250=VERTEX_POINT('',#666);
#251=VERTEX_POINT('',#671);
#252=VERTEX_POINT('',#687);
#253=VERTEX_POINT('',#689);
#254=VERTEX_POINT('',#693);
#255=VERTEX_POINT('',#696);
#256=VERTEX_POINT('',#699);
#257=VERTEX_POINT('',#702);
#258=VERTEX_POINT('',#705);
#259=VERTEX_POINT('',#708);
#260=CIRCLE('',#414,11.);
#261=CIRCLE('',#415,11.);
#262=CIRCLE('',#417,10.5);
#263=CIRCLE('',#419,10.5);
#264=CIRCLE('',#420,11.);
#265=CIRCLE('',#422,11.);
#266=CIRCLE('',#424,11.);
#267=CIRCLE('',#425,10.4999999999999);
#268=CIRCLE('',#427,10.4999999999999);
#269=CIRCLE('',#429,11.);
#270=CIRCLE('',#431,10.4999999999999);
#271=CIRCLE('',#433,10.4999999999999);
#272=CIRCLE('',#435,6.4);
#273=CIRCLE('',#436,10.5000000000002);
#274=CIRCLE('',#438,10.5000000000002);
#275=CIRCLE('',#439,6.4);
#276=CIRCLE('',#448,6.4);
#277=CIRCLE('',#449,6.79999999999999);
#278=CIRCLE('',#452,6.79999999999999);
#279=CIRCLE('',#454,6.);
#280=CIRCLE('',#456,6.);
#281=CIRCLE('',#458,6.4);
#282=CIRCLE('',#460,6.8);
#283=CIRCLE('',#462,6.8);
#284=EDGE_LOOP('',(#82,#83,#84,#85));
#285=EDGE_LOOP('',(#86,#87,#88,#89));
#286=EDGE_LOOP('',(#90,#91,#92,#93));
#287=EDGE_LOOP('',(#94,#95,#96,#97));
#288=EDGE_LOOP('',(#98,#99,#100,#101));
#289=EDGE_LOOP('',(#102,#103,#104,#105));
#290=EDGE_LOOP('',(#106,#107,#108,#109));
#291=EDGE_LOOP('',(#110,#111,#112,#113));
#292=EDGE_LOOP('',(#114,#115,#116,#117));
#293=EDGE_LOOP('',(#118));
#294=EDGE_LOOP('',(#119,#120));
#295=EDGE_LOOP('',(#121,#122));
#296=EDGE_LOOP('',(#123));
#297=EDGE_LOOP('',(#124,#125,#126,#127));
#298=EDGE_LOOP('',(#128,#129,#130,#131));
#299=EDGE_LOOP('',(#132,#133,#134,#135));
#300=EDGE_LOOP('',(#136,#137,#138,#139));
#301=EDGE_LOOP('',(#140,#141,#142,#143));
#302=EDGE_LOOP('',(#144,#145,#146,#147));
#303=EDGE_LOOP('',(#148,#149,#150,#151));
#304=EDGE_LOOP('',(#152,#153,#154,#155));
#305=EDGE_LOOP('',(#156,#157,#158,#159));
#306=EDGE_LOOP('',(#160));
#307=EDGE_LOOP('',(#161));
#308=EDGE_LOOP('',(#162));
#309=EDGE_LOOP('',(#163));
#310=EDGE_LOOP('',(#164));
#311=EDGE_LOOP('',(#165));
#312=EDGE_LOOP('',(#166));
#313=EDGE_LOOP('',(#167));
#314=EDGE_LOOP('',(#168));
#315=EDGE_LOOP('',(#169));
#316=EDGE_LOOP('',(#170));
#317=EDGE_LOOP('',(#171));
#318=EDGE_LOOP('',(#172));
#319=EDGE_LOOP('',(#173));
#320=EDGE_LOOP('',(#174));
#321=EDGE_LOOP('',(#175));
#322=EDGE_LOOP('',(#176));
#323=EDGE_LOOP('',(#177));
#324=FACE_BOUND('',#284,.T.);
#325=FACE_BOUND('',#285,.T.);
#326=FACE_BOUND('',#286,.T.);
#327=FACE_BOUND('',#287,.T.);
#328=FACE_BOUND('',#288,.T.);
#329=FACE_BOUND('',#289,.T.);
#330=FACE_BOUND('',#290,.T.);
#331=FACE_BOUND('',#291,.T.);
#332=FACE_BOUND('',#292,.T.);
#333=FACE_BOUND('',#293,.T.);
#334=FACE_BOUND('',#294,.T.);
#335=FACE_BOUND('',#295,.T.);
#336=FACE_BOUND('',#296,.T.);
#337=FACE_BOUND('',#297,.T.);
#338=FACE_BOUND('',#298,.T.);
#339=FACE_BOUND('',#299,.T.);
#340=FACE_BOUND('',#300,.T.);
#341=FACE_BOUND('',#301,.T.);
#342=FACE_BOUND('',#302,.T.);
#343=FACE_BOUND('',#303,.T.);
#344=FACE_BOUND('',#304,.T.);
#345=FACE_BOUND('',#305,.T.);
#346=FACE_BOUND('',#306,.T.);
#347=FACE_BOUND('',#307,.T.);
#348=FACE_BOUND('',#308,.T.);
#349=FACE_BOUND('',#309,.T.);
#350=FACE_BOUND('',#310,.T.);
#351=FACE_BOUND('',#311,.T.);
#352=FACE_BOUND('',#312,.T.);
#353=FACE_BOUND('',#313,.T.);
#354=FACE_BOUND('',#314,.T.);
#355=FACE_BOUND('',#315,.T.);
#356=FACE_BOUND('',#316,.T.);
#357=FACE_BOUND('',#317,.T.);
#358=FACE_BOUND('',#318,.T.);
#359=FACE_BOUND('',#319,.T.);
#360=FACE_BOUND('',#320,.T.);
#361=FACE_BOUND('',#321,.T.);
#362=FACE_BOUND('',#322,.T.);
#363=FACE_BOUND('',#323,.T.);
#364=CYLINDRICAL_SURFACE('',#413,11.);
#365=CYLINDRICAL_SURFACE('',#421,11.);
#366=CYLINDRICAL_SURFACE('',#428,11.);
#367=CYLINDRICAL_SURFACE('',#440,10.4999999999999);
#368=CYLINDRICAL_SURFACE('',#450,6.4);
#369=CYLINDRICAL_SURFACE('',#451,6.79999999999999);
#370=CYLINDRICAL_SURFACE('',#455,6.);
#371=CYLINDRICAL_SURFACE('',#457,6.4);
#372=CYLINDRICAL_SURFACE('',#461,6.8);
#373=ADVANCED_FACE('',(#324),#364,.T.);
#374=ADVANCED_FACE('',(#325),#40,.T.);
#375=ADVANCED_FACE('',(#326),#41,.T.);
#376=ADVANCED_FACE('',(#327),#365,.T.);
#377=ADVANCED_FACE('',(#328),#20,.F.);
#378=ADVANCED_FACE('',(#329),#21,.F.);
#379=ADVANCED_FACE('',(#330),#366,.T.);
#380=ADVANCED_FACE('',(#331),#22,.F.);
#381=ADVANCED_FACE('',(#332),#23,.F.);
#382=ADVANCED_FACE('',(#333,#334),#24,.T.);
#383=ADVANCED_FACE('',(#335,#336),#25,.T.);
#384=ADVANCED_FACE('',(#337,#338,#339),#367,.T.);
#385=ADVANCED_FACE('',(#340),#26,.T.);
#386=ADVANCED_FACE('',(#341),#27,.T.);
#387=ADVANCED_FACE('',(#342),#28,.T.);
#388=ADVANCED_FACE('',(#343),#29,.T.);
#389=ADVANCED_FACE('',(#344),#30,.T.);
#390=ADVANCED_FACE('',(#345),#31,.T.);
#391=ADVANCED_FACE('',(#346,#347),#32,.T.);
#392=ADVANCED_FACE('',(#348,#349),#368,.F.);
#393=ADVANCED_FACE('',(#350,#351),#369,.F.);
#394=ADVANCED_FACE('',(#352,#353),#33,.T.);
#395=ADVANCED_FACE('',(#354,#355),#370,.F.);
#396=ADVANCED_FACE('',(#356,#357),#371,.F.);
#397=ADVANCED_FACE('',(#358,#359),#34,.T.);
#398=ADVANCED_FACE('',(#360,#361),#372,.F.);
#399=ADVANCED_FACE('',(#362,#363),#35,.T.);
#400=CLOSED_SHELL('',(#373,#374,#375,#376,#377,#378,#379,#380,#381,#382,
#383,#384,#385,#386,#387,#388,#389,#390,#391,#392,#393,#394,#395,#396,#397,
#398,#399));
#401=STYLED_ITEM('',(#402),#409);
#402=PRESENTATION_STYLE_ASSIGNMENT((#403));
#403=SURFACE_STYLE_USAGE(.BOTH.,#404);
#404=SURFACE_SIDE_STYLE('',(#405));
#405=SURFACE_STYLE_FILL_AREA(#406);
#406=FILL_AREA_STYLE('',(#407));
#407=FILL_AREA_STYLE_COLOUR('',#408);
#408=COLOUR_RGB('',0.689999997615814,0.689999997615814,0.689999997615814);
#409=MANIFOLD_SOLID_BREP('LME12UU-AJ',#400);
#410=SHAPE_DEFINITION_REPRESENTATION(#716,#411);
#411=SHAPE_REPRESENTATION('LME12UU-AJ',(#412),#711);
#412=AXIS2_PLACEMENT_3D('',#588,#464,#465);
#413=AXIS2_PLACEMENT_3D('',#589,#466,#467);
#414=AXIS2_PLACEMENT_3D('',#590,#468,#469);
#415=AXIS2_PLACEMENT_3D('',#595,#471,#472);
#416=AXIS2_PLACEMENT_3D('',#598,#474,#475);
#417=AXIS2_PLACEMENT_3D('',#604,#476,#477);
#418=AXIS2_PLACEMENT_3D('',#610,#478,#479);
#419=AXIS2_PLACEMENT_3D('',#611,#480,#481);
#420=AXIS2_PLACEMENT_3D('',#619,#482,#483);
#421=AXIS2_PLACEMENT_3D('',#625,#484,#485);
#422=AXIS2_PLACEMENT_3D('',#628,#487,#488);
#423=AXIS2_PLACEMENT_3D('',#631,#490,#491);
#424=AXIS2_PLACEMENT_3D('',#635,#493,#494);
#425=AXIS2_PLACEMENT_3D('',#639,#496,#497);
#426=AXIS2_PLACEMENT_3D('',#640,#498,#499);
#427=AXIS2_PLACEMENT_3D('',#643,#501,#502);
#428=AXIS2_PLACEMENT_3D('',#646,#504,#505);
#429=AXIS2_PLACEMENT_3D('',#649,#507,#508);
#430=AXIS2_PLACEMENT_3D('',#652,#510,#511);
#431=AXIS2_PLACEMENT_3D('',#657,#514,#515);
#432=AXIS2_PLACEMENT_3D('',#658,#516,#517);
#433=AXIS2_PLACEMENT_3D('',#661,#519,#520);
#434=AXIS2_PLACEMENT_3D('',#664,#522,#523);
#435=AXIS2_PLACEMENT_3D('',#665,#524,#525);
#436=AXIS2_PLACEMENT_3D('',#667,#526,#527);
#437=AXIS2_PLACEMENT_3D('',#668,#528,#529);
#438=AXIS2_PLACEMENT_3D('',#669,#530,#531);
#439=AXIS2_PLACEMENT_3D('',#670,#532,#533);
#440=AXIS2_PLACEMENT_3D('',#672,#534,#535);
#441=AXIS2_PLACEMENT_3D('',#679,#542,#543);
#442=AXIS2_PLACEMENT_3D('',#680,#544,#545);
#443=AXIS2_PLACEMENT_3D('',#681,#546,#547);
#444=AXIS2_PLACEMENT_3D('',#682,#548,#549);
#445=AXIS2_PLACEMENT_3D('',#683,#550,#551);
#446=AXIS2_PLACEMENT_3D('',#684,#552,#553);
#447=AXIS2_PLACEMENT_3D('',#685,#554,#555);
#448=AXIS2_PLACEMENT_3D('',#686,#556,#557);
#449=AXIS2_PLACEMENT_3D('',#688,#558,#559);
#450=AXIS2_PLACEMENT_3D('',#690,#560,#561);
#451=AXIS2_PLACEMENT_3D('',#691,#562,#563);
#452=AXIS2_PLACEMENT_3D('',#692,#564,#565);
#453=AXIS2_PLACEMENT_3D('',#694,#566,#567);
#454=AXIS2_PLACEMENT_3D('',#695,#568,#569);
#455=AXIS2_PLACEMENT_3D('',#697,#570,#571);
#456=AXIS2_PLACEMENT_3D('',#698,#572,#573);
#457=AXIS2_PLACEMENT_3D('',#700,#574,#575);
#458=AXIS2_PLACEMENT_3D('',#701,#576,#577);
#459=AXIS2_PLACEMENT_3D('',#703,#578,#579);
#460=AXIS2_PLACEMENT_3D('',#704,#580,#581);
#461=AXIS2_PLACEMENT_3D('',#706,#582,#583);
#462=AXIS2_PLACEMENT_3D('',#707,#584,#585);
#463=AXIS2_PLACEMENT_3D('',#709,#586,#587);
#464=DIRECTION('',(0.,0.,1.));
#465=DIRECTION('',(1.,0.,0.));
#466=DIRECTION('',(0.,0.,-1.));
#467=DIRECTION('',(-1.,0.,0.));
#468=DIRECTION('',(0.,0.,1.));
#469=DIRECTION('',(1.,0.,0.));
#470=DIRECTION('',(0.,0.,-1.));
#471=DIRECTION('',(0.,0.,-1.));
#472=DIRECTION('',(-1.,0.,0.));
#473=DIRECTION('',(0.,0.,-1.));
#474=DIRECTION('',(0.,0.,-1.));
#475=DIRECTION('',(-1.,0.,0.));
#476=DIRECTION('',(0.,0.,-1.));
#477=DIRECTION('',(-1.,0.,0.));
#478=DIRECTION('',(0.,0.,-1.));
#479=DIRECTION('',(-1.,0.,0.));
#480=DIRECTION('',(0.,0.,-1.));
#481=DIRECTION('',(-1.,0.,0.));
#482=DIRECTION('',(0.,0.,-1.));
#483=DIRECTION('',(-1.,0.,0.));
#484=DIRECTION('',(0.,0.,-1.));
#485=DIRECTION('',(-1.,0.,0.));
#486=DIRECTION('',(0.,0.,-1.));
#487=DIRECTION('',(0.,0.,-1.));
#488=DIRECTION('',(-1.,0.,0.));
#489=DIRECTION('',(0.,0.,-1.));
#490=DIRECTION('',(0.,0.,1.));
#491=DIRECTION('',(1.,0.,0.));
#492=DIRECTION('',(0.707106781186547,-0.707106781186548,0.));
#493=DIRECTION('',(0.,0.,-1.));
#494=DIRECTION('',(-1.,0.,0.));
#495=DIRECTION('',(-0.707106781186548,0.707106781186548,0.));
#496=DIRECTION('',(0.,0.,-1.));
#497=DIRECTION('',(-1.,0.,0.));
#498=DIRECTION('',(0.,0.,-1.));
#499=DIRECTION('',(-1.,0.,0.));
#500=DIRECTION('',(-0.707106781186547,0.707106781186548,0.));
#501=DIRECTION('',(0.,0.,-1.));
#502=DIRECTION('',(-1.,0.,0.));
#503=DIRECTION('',(0.707106781186548,-0.707106781186548,0.));
#504=DIRECTION('',(0.,0.,-1.));
#505=DIRECTION('',(-1.,0.,0.));
#506=DIRECTION('',(0.,0.,-1.));
#507=DIRECTION('',(0.,0.,-1.));
#508=DIRECTION('',(-1.,0.,0.));
#509=DIRECTION('',(0.,0.,-1.));
#510=DIRECTION('',(0.,0.,1.));
#511=DIRECTION('',(1.,0.,0.));
#512=DIRECTION('',(0.707106781186547,-0.707106781186548,0.));
#513=DIRECTION('',(-0.707106781186548,0.707106781186548,0.));
#514=DIRECTION('',(0.,0.,-1.));
#515=DIRECTION('',(-1.,0.,0.));
#516=DIRECTION('',(0.,0.,-1.));
#517=DIRECTION('',(-1.,0.,0.));
#518=DIRECTION('',(-0.707106781186547,0.707106781186548,0.));
#519=DIRECTION('',(0.,0.,-1.));
#520=DIRECTION('',(-1.,0.,0.));
#521=DIRECTION('',(0.707106781186548,-0.707106781186548,0.));
#522=DIRECTION('',(0.,0.,1.));
#523=DIRECTION('',(1.,0.,0.));
#524=DIRECTION('',(0.,0.,-1.));
#525=DIRECTION('',(-1.,0.,0.));
#526=DIRECTION('',(0.,0.,1.));
#527=DIRECTION('',(1.,0.,0.));
#528=DIRECTION('',(0.,0.,-1.));
#529=DIRECTION('',(-1.,0.,0.));
#530=DIRECTION('',(0.,0.,1.));
#531=DIRECTION('',(1.,0.,0.));
#532=DIRECTION('',(0.,0.,-1.));
#533=DIRECTION('',(-1.,0.,0.));
#534=DIRECTION('',(0.,0.,-1.));
#535=DIRECTION('',(-1.,0.,0.));
#536=DIRECTION('',(0.,0.,-1.));
#537=DIRECTION('',(0.,0.,-1.));
#538=DIRECTION('',(0.,0.,-1.));
#539=DIRECTION('',(0.,0.,-1.));
#540=DIRECTION('',(0.,0.,-1.));
#541=DIRECTION('',(0.,0.,-1.));
#542=DIRECTION('',(-0.707106781186548,-0.707106781186547,0.));
#543=DIRECTION('',(0.707106781186547,-0.707106781186548,0.));
#544=DIRECTION('',(0.707106781186547,0.707106781186547,0.));
#545=DIRECTION('',(-0.707106781186548,0.707106781186548,0.));
#546=DIRECTION('',(-0.707106781186548,-0.707106781186547,0.));
#547=DIRECTION('',(0.707106781186547,-0.707106781186548,0.));
#548=DIRECTION('',(0.707106781186547,0.707106781186547,0.));
#549=DIRECTION('',(-0.707106781186548,0.707106781186548,0.));
#550=DIRECTION('',(0.707106781186547,0.707106781186547,0.));
#551=DIRECTION('',(-0.707106781186548,0.707106781186548,0.));
#552=DIRECTION('',(-0.707106781186548,-0.707106781186547,0.));
#553=DIRECTION('',(0.707106781186547,-0.707106781186548,0.));
#554=DIRECTION('',(0.,0.,1.));
#555=DIRECTION('',(1.,0.,0.));
#556=DIRECTION('',(0.,0.,-1.));
#557=DIRECTION('',(-1.,0.,0.));
#558=DIRECTION('',(0.,0.,-1.));
#559=DIRECTION('',(-1.,0.,0.));
#560=DIRECTION('',(0.,0.,-1.));
#561=DIRECTION('',(-1.,0.,0.));
#562=DIRECTION('',(0.,0.,-1.));
#563=DIRECTION('',(-1.,0.,0.));
#564=DIRECTION('',(0.,0.,-1.));
#565=DIRECTION('',(-1.,0.,0.));
#566=DIRECTION('',(0.,0.,-1.));
#567=DIRECTION('',(-1.,0.,0.));
#568=DIRECTION('',(0.,0.,-1.));
#569=DIRECTION('',(-1.,0.,0.));
#570=DIRECTION('',(0.,0.,-1.));
#571=DIRECTION('',(-1.,0.,0.));
#572=DIRECTION('',(0.,0.,-1.));
#573=DIRECTION('',(-1.,0.,0.));
#574=DIRECTION('',(0.,0.,-1.));
#575=DIRECTION('',(-1.,0.,0.));
#576=DIRECTION('',(0.,0.,-1.));
#577=DIRECTION('',(-1.,0.,0.));
#578=DIRECTION('',(0.,0.,-1.));
#579=DIRECTION('',(-1.,0.,0.));
#580=DIRECTION('',(0.,0.,-1.));
#581=DIRECTION('',(-1.,0.,0.));
#582=DIRECTION('',(0.,0.,-1.));
#583=DIRECTION('',(-1.,0.,0.));
#584=DIRECTION('',(0.,0.,-1.));
#585=DIRECTION('',(-1.,0.,0.));
#586=DIRECTION('',(0.,0.,1.));
#587=DIRECTION('',(1.,0.,0.));
#588=CARTESIAN_POINT('',(0.,0.,0.));
#589=CARTESIAN_POINT('',(0.,0.,-500.));
#590=CARTESIAN_POINT('',(0.,0.,11.45));
#591=CARTESIAN_POINT('',(-7.22974401169449,8.29040418347427,11.45));
#592=CARTESIAN_POINT('',(-8.29040418347427,7.22974401169449,11.45));
#593=CARTESIAN_POINT('',(-7.22974401169449,8.29040418347427,32.));
#594=CARTESIAN_POINT('',(-7.22974401169449,8.29040418347427,15.5));
#595=CARTESIAN_POINT('',(0.,0.,15.5));
#596=CARTESIAN_POINT('',(-8.29040418347427,7.22974401169449,15.5));
#597=CARTESIAN_POINT('',(-8.29040418347427,7.22974401169449,32.));
#598=CARTESIAN_POINT('',(0.,0.,15.5));
#599=CARTESIAN_POINT('',(-7.22974401169449,8.29040418347427,15.5));
#600=CARTESIAN_POINT('',(-7.22974401169451,8.29040418347428,15.764420900254));
#601=CARTESIAN_POINT('',(-7.06228842382796,8.12294859560773,16.0000000000116));
#602=CARTESIAN_POINT('',(-6.87532653591041,7.93598670769018,16.0000000000124));
#603=CARTESIAN_POINT('',(-6.87532653590943,7.9359867076892,16.));
#604=CARTESIAN_POINT('',(0.,0.,16.));
#605=CARTESIAN_POINT('',(-7.9359867076892,6.87532653590943,16.));
#606=CARTESIAN_POINT('',(-7.9359867076892,6.87532653590943,16.));
#607=CARTESIAN_POINT('',(-8.1229501505294,7.06228997874962,16.));
#608=CARTESIAN_POINT('',(-8.29040418347818,7.2297440116984,15.7644384284203));
#609=CARTESIAN_POINT('',(-8.2904041834784,7.22974401169863,15.5000000000006));
#610=CARTESIAN_POINT('',(0.,0.,-15.5));
#611=CARTESIAN_POINT('',(0.,0.,-16.));
#612=CARTESIAN_POINT('',(-6.87532653590943,7.9359867076892,-16.));
#613=CARTESIAN_POINT('',(-7.9359867076892,6.87532653590943,-16.));
#614=CARTESIAN_POINT('',(-6.87532653590943,7.9359867076892,-16.));
#615=CARTESIAN_POINT('',(-7.06228997874961,8.12295015052938,-16.));
#616=CARTESIAN_POINT('',(-7.22974401169838,8.29040418347815,-15.7644384284203));
#617=CARTESIAN_POINT('',(-7.22974401169863,8.2904041834784,-15.5000000000007));
#618=CARTESIAN_POINT('',(-7.22974401169449,8.29040418347427,-15.5));
#619=CARTESIAN_POINT('',(0.,0.,-15.5));
#620=CARTESIAN_POINT('',(-8.29040418347427,7.22974401169449,-15.5));
#621=CARTESIAN_POINT('',(-8.29040418347427,7.2297440116945,-15.5));
#622=CARTESIAN_POINT('',(-8.29040418347426,7.22974401169449,-15.7644209002541));
#623=CARTESIAN_POINT('',(-8.12294859560772,7.06228842382795,-16.0000000000116));
#624=CARTESIAN_POINT('',(-7.93598670769018,6.87532653591041,-16.0000000000124));
#625=CARTESIAN_POINT('',(0.,0.,-500.));
#626=CARTESIAN_POINT('',(-7.22974401169449,8.29040418347427,32.));
#627=CARTESIAN_POINT('',(-7.22974401169449,8.29040418347427,-11.45));
#628=CARTESIAN_POINT('',(0.,0.,-11.45));
#629=CARTESIAN_POINT('',(-8.29040418347427,7.22974401169449,-11.45));
#630=CARTESIAN_POINT('',(-8.29040418347427,7.22974401169449,32.));
#631=CARTESIAN_POINT('',(0.,11.,-10.15));
#632=CARTESIAN_POINT('',(-4.96966991411012,6.03033008588989,-10.15));
#633=CARTESIAN_POINT('',(-7.22974401169449,8.29040418347427,-10.15));
#634=CARTESIAN_POINT('',(-6.87532653590943,7.9359867076892,-10.15));
#635=CARTESIAN_POINT('',(0.,0.,-10.15));
#636=CARTESIAN_POINT('',(-8.29040418347427,7.22974401169449,-10.15));
#637=CARTESIAN_POINT('',(-6.03033008588989,4.96966991411011,-10.15));
#638=CARTESIAN_POINT('',(-7.9359867076892,6.87532653590943,-10.15));
#639=CARTESIAN_POINT('',(0.,0.,-10.15));
#640=CARTESIAN_POINT('',(0.,10.4999999999999,-11.45));
#641=CARTESIAN_POINT('',(-4.71966991411009,5.78033008588986,-11.45));
#642=CARTESIAN_POINT('',(-6.87532653590939,7.93598670768916,-11.45));
#643=CARTESIAN_POINT('',(0.,0.,-11.45));
#644=CARTESIAN_POINT('',(-7.9359867076892,6.87532653590943,-11.45));
#645=CARTESIAN_POINT('',(-5.78033008588986,4.71966991411008,-11.45));
#646=CARTESIAN_POINT('',(0.,0.,-500.));
#647=CARTESIAN_POINT('',(-7.22974401169449,8.29040418347427,32.));
#648=CARTESIAN_POINT('',(-7.22974401169449,8.29040418347427,10.15));
#649=CARTESIAN_POINT('',(0.,0.,10.15));
#650=CARTESIAN_POINT('',(-8.29040418347427,7.22974401169449,10.15));
#651=CARTESIAN_POINT('',(-8.29040418347427,7.22974401169449,32.));
#652=CARTESIAN_POINT('',(0.,21.,11.45));
#653=CARTESIAN_POINT('',(-9.96966991411012,11.0303300858899,11.45));
#654=CARTESIAN_POINT('',(-6.87532653590943,7.9359867076892,11.45));
#655=CARTESIAN_POINT('',(-11.0303300858899,9.96966991411011,11.45));
#656=CARTESIAN_POINT('',(-7.9359867076892,6.87532653590943,11.45));
#657=CARTESIAN_POINT('',(0.,0.,11.45));
#658=CARTESIAN_POINT('',(0.,10.4999999999999,10.15));
#659=CARTESIAN_POINT('',(-4.71966991411009,5.78033008588986,10.15));
#660=CARTESIAN_POINT('',(-6.87532653590939,7.93598670768916,10.15));
#661=CARTESIAN_POINT('',(0.,0.,10.15));
#662=CARTESIAN_POINT('',(-7.9359867076892,6.87532653590943,10.15));
#663=CARTESIAN_POINT('',(-5.78033008588986,4.71966991411008,10.15));
#664=CARTESIAN_POINT('',(0.,10.5,16.));
#665=CARTESIAN_POINT('',(0.,0.,16.));
#666=CARTESIAN_POINT('',(-6.4,0.,16.));
#667=CARTESIAN_POINT('',(1.2490009027033E-13,-1.2490009027033E-13,16.));
#668=CARTESIAN_POINT('',(0.,6.,-16.));
#669=CARTESIAN_POINT('',(0.,0.,-16.));
#670=CARTESIAN_POINT('',(0.,0.,-16.));
#671=CARTESIAN_POINT('',(-6.4,0.,-16.));
#672=CARTESIAN_POINT('',(0.,0.,-50.));
#673=CARTESIAN_POINT('',(-6.87532653590943,7.9359867076892,32.));
#674=CARTESIAN_POINT('',(-7.9359867076892,6.87532653590943,32.));
#675=CARTESIAN_POINT('',(-6.87532653590943,7.9359867076892,32.));
#676=CARTESIAN_POINT('',(-7.9359867076892,6.87532653590943,32.));
#677=CARTESIAN_POINT('',(-7.9359867076892,6.87532653590943,32.));
#678=CARTESIAN_POINT('',(-6.87532653590943,7.9359867076892,32.));
#679=CARTESIAN_POINT('',(-6.87532653590943,7.9359867076892,32.));
#680=CARTESIAN_POINT('',(-8.29040418347427,7.22974401169449,32.));
#681=CARTESIAN_POINT('',(-6.87532653590943,7.9359867076892,32.));
#682=CARTESIAN_POINT('',(-8.29040418347427,7.22974401169449,32.));
#683=CARTESIAN_POINT('',(-8.29040418347427,7.22974401169449,32.));
#684=CARTESIAN_POINT('',(-6.87532653590943,7.9359867076892,32.));
#685=CARTESIAN_POINT('',(0.,6.79999999999999,-15.2));
#686=CARTESIAN_POINT('',(0.,0.,-15.2));
#687=CARTESIAN_POINT('',(-6.4,0.,-15.2));
#688=CARTESIAN_POINT('',(0.,0.,-15.2));
#689=CARTESIAN_POINT('',(-6.79999999999999,0.,-15.2));
#690=CARTESIAN_POINT('',(0.,0.,-50.));
#691=CARTESIAN_POINT('',(0.,0.,-50.));
#692=CARTESIAN_POINT('',(0.,0.,-14.9));
#693=CARTESIAN_POINT('',(-6.79999999999999,0.,-14.9));
#694=CARTESIAN_POINT('',(0.,6.,-14.9));
#695=CARTESIAN_POINT('',(0.,0.,-14.9));
#696=CARTESIAN_POINT('',(-6.,0.,-14.9));
#697=CARTESIAN_POINT('',(0.,0.,-500.));
#698=CARTESIAN_POINT('',(0.,0.,14.9));
#699=CARTESIAN_POINT('',(-6.,0.,14.9));
#700=CARTESIAN_POINT('',(0.,0.,-50.));
#701=CARTESIAN_POINT('',(0.,0.,15.2));
#702=CARTESIAN_POINT('',(-6.4,0.,15.2));
#703=CARTESIAN_POINT('',(0.,6.4,15.2));
#704=CARTESIAN_POINT('',(0.,0.,15.2));
#705=CARTESIAN_POINT('',(-6.8,0.,15.2));
#706=CARTESIAN_POINT('',(0.,0.,-50.));
#707=CARTESIAN_POINT('',(0.,0.,14.9));
#708=CARTESIAN_POINT('',(-6.8,0.,14.9));
#709=CARTESIAN_POINT('',(0.,6.8,14.9));
#710=MECHANICAL_DESIGN_GEOMETRIC_PRESENTATION_REPRESENTATION('',(#401),
#711);
#711=(
GEOMETRIC_REPRESENTATION_CONTEXT(3)
GLOBAL_UNCERTAINTY_ASSIGNED_CONTEXT((#712))
GLOBAL_UNIT_ASSIGNED_CONTEXT((#715,#714,#713))
REPRESENTATION_CONTEXT('LME12UU-AJ','TOP_LEVEL_ASSEMBLY_PART')
);
#712=UNCERTAINTY_MEASURE_WITH_UNIT(LENGTH_MEASURE(0.005),#715,
'DISTANCE_ACCURACY_VALUE','Maximum Tolerance applied to model');
#713=(
NAMED_UNIT(*)
SI_UNIT($,.STERADIAN.)
SOLID_ANGLE_UNIT()
);
#714=(
NAMED_UNIT(*)
PLANE_ANGLE_UNIT()
SI_UNIT($,.RADIAN.)
);
#715=(
LENGTH_UNIT()
NAMED_UNIT(*)
SI_UNIT(.MILLI.,.METRE.)
);
#716=PRODUCT_DEFINITION_SHAPE('','',#717);
#717=PRODUCT_DEFINITION('','',#719,#718);
#718=DESIGN_CONTEXT('',#725,'design');
#719=PRODUCT_DEFINITION_FORMATION_WITH_SPECIFIED_SOURCE('','',#721,
 .NOT_KNOWN.);
#720=PRODUCT_RELATED_PRODUCT_CATEGORY('','',(#721));
#721=PRODUCT('LME12UU-AJ','LME12UU-AJ','LME12UU-AJ',(#723));
#722=PRODUCT_CATEGORY('','');
#723=MECHANICAL_CONTEXT('',#725,'mechanical');
#724=APPLICATION_PROTOCOL_DEFINITION('international standard',
'config_control_design',2010,#725);
#725=APPLICATION_CONTEXT(
'configuration controlled 3D designs of mechanical parts and assemblie
s');
ENDSEC;
END-ISO-10303-21;
