ISO-10303-21;
HEADER;
/* Generated by software containing ST-Developer
 * from STEP Tools, Inc. (www.steptools.com) 
 */
/* OPTION: using custom renumber hook */

FILE_DESCRIPTION(
/* description */ ('STEP AP203'),
/* implementation_level */ '2;1');

FILE_NAME(
/* name */ 'LME10UU-AJ',
/* time_stamp */ '2022-07-21T04:09:01+02:00',
/* author */ ('License CC BY-ND 4.0'),
/* organization */ ('CADENAS'),
/* preprocessor_version */ 'ST-DEVELOPER v18.102',
/* originating_system */ 'PARTsolutions',
/* authorisation */ '  ');

FILE_SCHEMA (('CONFIG_CONTROL_DESIGN'));
ENDSEC;

DATA;
#10=PROPERTY_DEFINITION_REPRESENTATION(#14,#12);
#11=PROPERTY_DEFINITION_REPRESENTATION(#15,#13);
#12=REPRESENTATION('',(#16),#631);
#13=REPRESENTATION('',(#17),#631);
#14=PROPERTY_DEFINITION('pmi validation property','',#636);
#15=PROPERTY_DEFINITION('pmi validation property','',#636);
#16=VALUE_REPRESENTATION_ITEM('number of annotations',COUNT_MEASURE(0.));
#17=VALUE_REPRESENTATION_ITEM('number of views',COUNT_MEASURE(0.));
#18=SHAPE_REPRESENTATION_RELATIONSHIP('','',#367,#19);
#19=ADVANCED_BREP_SHAPE_REPRESENTATION('',(#365),#631);
#20=PLANE('',#379);
#21=PLANE('',#382);
#22=PLANE('',#386);
#23=PLANE('',#388);
#24=PLANE('',#390);
#25=PLANE('',#393);
#26=PLANE('',#397);
#27=PLANE('',#398);
#28=PLANE('',#399);
#29=PLANE('',#400);
#30=PLANE('',#401);
#31=PLANE('',#402);
#32=PLANE('',#405);
#33=PLANE('',#411);
#34=B_SPLINE_CURVE_WITH_KNOTS('',3,(#531,#532,#533,#534),.UNSPECIFIED.,
 .F.,.F.,(4,4),(1.97166502906148E-7,0.000781859473337475),.UNSPECIFIED.);
#35=B_SPLINE_CURVE_WITH_KNOTS('',3,(#538,#539,#540,#541),.UNSPECIFIED.,
 .F.,.F.,(4,4),(2.78844444053001E-7,0.000781941979307856),.UNSPECIFIED.);
#36=B_SPLINE_CURVE_WITH_KNOTS('',3,(#546,#547,#548,#549),.UNSPECIFIED.,
 .F.,.F.,(4,4),(2.78844444058128E-7,0.000781941979307878),.UNSPECIFIED.);
#37=B_SPLINE_CURVE_WITH_KNOTS('',3,(#553,#554,#555,#556),.UNSPECIFIED.,
 .F.,.F.,(4,4),(1.9716650288672E-7,0.000781859473337476),.UNSPECIFIED.);
#38=TOROIDAL_SURFACE('',#372,9.,0.500000000000004);
#39=TOROIDAL_SURFACE('',#374,9.,0.500000000000004);
#40=LINE('',#525,#60);
#41=LINE('',#529,#61);
#42=LINE('',#558,#62);
#43=LINE('',#562,#63);
#44=LINE('',#564,#64);
#45=LINE('',#569,#65);
#46=LINE('',#573,#66);
#47=LINE('',#577,#67);
#48=LINE('',#579,#68);
#49=LINE('',#583,#69);
#50=LINE('',#585,#70);
#51=LINE('',#587,#71);
#52=LINE('',#591,#72);
#53=LINE('',#595,#73);
#54=LINE('',#605,#74);
#55=LINE('',#606,#75);
#56=LINE('',#607,#76);
#57=LINE('',#608,#77);
#58=LINE('',#609,#78);
#59=LINE('',#610,#79);
#60=VECTOR('',#418,1000.);
#61=VECTOR('',#421,1000.);
#62=VECTOR('',#434,1000.);
#63=VECTOR('',#437,1000.);
#64=VECTOR('',#440,1000.);
#65=VECTOR('',#443,1000.);
#66=VECTOR('',#448,1000.);
#67=VECTOR('',#451,1000.);
#68=VECTOR('',#454,1000.);
#69=VECTOR('',#457,1000.);
#70=VECTOR('',#460,1000.);
#71=VECTOR('',#461,1000.);
#72=VECTOR('',#466,1000.);
#73=VECTOR('',#469,1000.);
#74=VECTOR('',#484,1000.);
#75=VECTOR('',#485,1000.);
#76=VECTOR('',#486,1000.);
#77=VECTOR('',#487,1000.);
#78=VECTOR('',#488,1000.);
#79=VECTOR('',#489,1000.);
#80=ORIENTED_EDGE('',*,*,#168,.F.);
#81=ORIENTED_EDGE('',*,*,#169,.F.);
#82=ORIENTED_EDGE('',*,*,#170,.T.);
#83=ORIENTED_EDGE('',*,*,#171,.T.);
#84=ORIENTED_EDGE('',*,*,#170,.F.);
#85=ORIENTED_EDGE('',*,*,#172,.T.);
#86=ORIENTED_EDGE('',*,*,#173,.T.);
#87=ORIENTED_EDGE('',*,*,#174,.T.);
#88=ORIENTED_EDGE('',*,*,#175,.F.);
#89=ORIENTED_EDGE('',*,*,#176,.T.);
#90=ORIENTED_EDGE('',*,*,#177,.T.);
#91=ORIENTED_EDGE('',*,*,#178,.T.);
#92=ORIENTED_EDGE('',*,*,#177,.F.);
#93=ORIENTED_EDGE('',*,*,#179,.F.);
#94=ORIENTED_EDGE('',*,*,#180,.F.);
#95=ORIENTED_EDGE('',*,*,#181,.T.);
#96=ORIENTED_EDGE('',*,*,#182,.F.);
#97=ORIENTED_EDGE('',*,*,#183,.T.);
#98=ORIENTED_EDGE('',*,*,#184,.F.);
#99=ORIENTED_EDGE('',*,*,#185,.F.);
#100=ORIENTED_EDGE('',*,*,#186,.F.);
#101=ORIENTED_EDGE('',*,*,#187,.T.);
#102=ORIENTED_EDGE('',*,*,#188,.F.);
#103=ORIENTED_EDGE('',*,*,#180,.T.);
#104=ORIENTED_EDGE('',*,*,#183,.F.);
#105=ORIENTED_EDGE('',*,*,#189,.F.);
#106=ORIENTED_EDGE('',*,*,#190,.T.);
#107=ORIENTED_EDGE('',*,*,#191,.T.);
#108=ORIENTED_EDGE('',*,*,#192,.F.);
#109=ORIENTED_EDGE('',*,*,#168,.T.);
#110=ORIENTED_EDGE('',*,*,#193,.F.);
#111=ORIENTED_EDGE('',*,*,#194,.F.);
#112=ORIENTED_EDGE('',*,*,#195,.F.);
#113=ORIENTED_EDGE('',*,*,#196,.T.);
#114=ORIENTED_EDGE('',*,*,#197,.F.);
#115=ORIENTED_EDGE('',*,*,#190,.F.);
#116=ORIENTED_EDGE('',*,*,#198,.T.);
#117=ORIENTED_EDGE('',*,*,#173,.F.);
#118=ORIENTED_EDGE('',*,*,#199,.F.);
#119=ORIENTED_EDGE('',*,*,#200,.F.);
#120=ORIENTED_EDGE('',*,*,#175,.T.);
#121=ORIENTED_EDGE('',*,*,#201,.F.);
#122=ORIENTED_EDGE('',*,*,#196,.F.);
#123=ORIENTED_EDGE('',*,*,#202,.T.);
#124=ORIENTED_EDGE('',*,*,#185,.T.);
#125=ORIENTED_EDGE('',*,*,#203,.F.);
#126=ORIENTED_EDGE('',*,*,#187,.F.);
#127=ORIENTED_EDGE('',*,*,#204,.T.);
#128=ORIENTED_EDGE('',*,*,#200,.T.);
#129=ORIENTED_EDGE('',*,*,#205,.F.);
#130=ORIENTED_EDGE('',*,*,#194,.T.);
#131=ORIENTED_EDGE('',*,*,#206,.F.);
#132=ORIENTED_EDGE('',*,*,#199,.T.);
#133=ORIENTED_EDGE('',*,*,#207,.T.);
#134=ORIENTED_EDGE('',*,*,#182,.T.);
#135=ORIENTED_EDGE('',*,*,#202,.F.);
#136=ORIENTED_EDGE('',*,*,#195,.T.);
#137=ORIENTED_EDGE('',*,*,#189,.T.);
#138=ORIENTED_EDGE('',*,*,#184,.T.);
#139=ORIENTED_EDGE('',*,*,#191,.F.);
#140=ORIENTED_EDGE('',*,*,#197,.T.);
#141=ORIENTED_EDGE('',*,*,#203,.T.);
#142=ORIENTED_EDGE('',*,*,#169,.T.);
#143=ORIENTED_EDGE('',*,*,#192,.T.);
#144=ORIENTED_EDGE('',*,*,#207,.F.);
#145=ORIENTED_EDGE('',*,*,#172,.F.);
#146=ORIENTED_EDGE('',*,*,#206,.T.);
#147=ORIENTED_EDGE('',*,*,#193,.T.);
#148=ORIENTED_EDGE('',*,*,#171,.F.);
#149=ORIENTED_EDGE('',*,*,#174,.F.);
#150=ORIENTED_EDGE('',*,*,#181,.F.);
#151=ORIENTED_EDGE('',*,*,#188,.T.);
#152=ORIENTED_EDGE('',*,*,#205,.T.);
#153=ORIENTED_EDGE('',*,*,#178,.F.);
#154=ORIENTED_EDGE('',*,*,#204,.F.);
#155=ORIENTED_EDGE('',*,*,#186,.T.);
#156=ORIENTED_EDGE('',*,*,#179,.T.);
#157=ORIENTED_EDGE('',*,*,#176,.F.);
#158=ORIENTED_EDGE('',*,*,#201,.T.);
#159=ORIENTED_EDGE('',*,*,#208,.F.);
#160=ORIENTED_EDGE('',*,*,#208,.T.);
#161=ORIENTED_EDGE('',*,*,#209,.F.);
#162=ORIENTED_EDGE('',*,*,#209,.T.);
#163=ORIENTED_EDGE('',*,*,#210,.T.);
#164=ORIENTED_EDGE('',*,*,#211,.T.);
#165=ORIENTED_EDGE('',*,*,#198,.F.);
#166=ORIENTED_EDGE('',*,*,#210,.F.);
#167=ORIENTED_EDGE('',*,*,#211,.F.);
#168=EDGE_CURVE('',#212,#213,#242,.F.);
#169=EDGE_CURVE('',#214,#212,#40,.T.);
#170=EDGE_CURVE('',#214,#215,#243,.T.);
#171=EDGE_CURVE('',#215,#213,#41,.T.);
#172=EDGE_CURVE('',#214,#216,#34,.T.);
#173=EDGE_CURVE('',#216,#217,#244,.T.);
#174=EDGE_CURVE('',#217,#215,#35,.T.);
#175=EDGE_CURVE('',#218,#219,#245,.T.);
#176=EDGE_CURVE('',#218,#220,#36,.T.);
#177=EDGE_CURVE('',#220,#221,#246,.T.);
#178=EDGE_CURVE('',#221,#219,#37,.T.);
#179=EDGE_CURVE('',#222,#220,#42,.T.);
#180=EDGE_CURVE('',#223,#222,#247,.F.);
#181=EDGE_CURVE('',#223,#221,#43,.T.);
#182=EDGE_CURVE('',#224,#225,#44,.T.);
#183=EDGE_CURVE('',#224,#226,#248,.T.);
#184=EDGE_CURVE('',#227,#226,#45,.T.);
#185=EDGE_CURVE('',#225,#227,#249,.T.);
#186=EDGE_CURVE('',#228,#222,#46,.T.);
#187=EDGE_CURVE('',#228,#229,#250,.T.);
#188=EDGE_CURVE('',#223,#229,#47,.T.);
#189=EDGE_CURVE('',#230,#224,#48,.T.);
#190=EDGE_CURVE('',#230,#231,#251,.T.);
#191=EDGE_CURVE('',#231,#226,#49,.T.);
#192=EDGE_CURVE('',#212,#232,#50,.T.);
#193=EDGE_CURVE('',#233,#213,#51,.T.);
#194=EDGE_CURVE('',#232,#233,#252,.T.);
#195=EDGE_CURVE('',#234,#230,#52,.T.);
#196=EDGE_CURVE('',#234,#235,#253,.T.);
#197=EDGE_CURVE('',#231,#235,#53,.T.);
#198=EDGE_CURVE('',#236,#236,#254,.T.);
#199=EDGE_CURVE('',#217,#216,#255,.F.);
#200=EDGE_CURVE('',#218,#219,#256,.T.);
#201=EDGE_CURVE('',#237,#237,#257,.T.);
#202=EDGE_CURVE('',#234,#225,#54,.T.);
#203=EDGE_CURVE('',#235,#227,#55,.T.);
#204=EDGE_CURVE('',#228,#218,#56,.T.);
#205=EDGE_CURVE('',#229,#219,#57,.T.);
#206=EDGE_CURVE('',#217,#233,#58,.T.);
#207=EDGE_CURVE('',#216,#232,#59,.T.);
#208=EDGE_CURVE('',#238,#238,#258,.T.);
#209=EDGE_CURVE('',#239,#239,#259,.T.);
#210=EDGE_CURVE('',#240,#240,#260,.T.);
#211=EDGE_CURVE('',#241,#241,#261,.T.);
#212=VERTEX_POINT('',#523);
#213=VERTEX_POINT('',#524);
#214=VERTEX_POINT('',#526);
#215=VERTEX_POINT('',#528);
#216=VERTEX_POINT('',#535);
#217=VERTEX_POINT('',#537);
#218=VERTEX_POINT('',#544);
#219=VERTEX_POINT('',#545);
#220=VERTEX_POINT('',#550);
#221=VERTEX_POINT('',#552);
#222=VERTEX_POINT('',#559);
#223=VERTEX_POINT('',#561);
#224=VERTEX_POINT('',#565);
#225=VERTEX_POINT('',#566);
#226=VERTEX_POINT('',#568);
#227=VERTEX_POINT('',#570);
#228=VERTEX_POINT('',#574);
#229=VERTEX_POINT('',#576);
#230=VERTEX_POINT('',#580);
#231=VERTEX_POINT('',#582);
#232=VERTEX_POINT('',#586);
#233=VERTEX_POINT('',#588);
#234=VERTEX_POINT('',#592);
#235=VERTEX_POINT('',#594);
#236=VERTEX_POINT('',#598);
#237=VERTEX_POINT('',#603);
#238=VERTEX_POINT('',#619);
#239=VERTEX_POINT('',#622);
#240=VERTEX_POINT('',#625);
#241=VERTEX_POINT('',#628);
#242=CIRCLE('',#370,9.5);
#243=CIRCLE('',#371,9.5);
#244=CIRCLE('',#373,9.);
#245=CIRCLE('',#375,9.);
#246=CIRCLE('',#376,9.5);
#247=CIRCLE('',#378,9.5);
#248=CIRCLE('',#380,9.5);
#249=CIRCLE('',#381,9.);
#250=CIRCLE('',#383,9.);
#251=CIRCLE('',#385,9.5);
#252=CIRCLE('',#387,9.);
#253=CIRCLE('',#389,9.);
#254=CIRCLE('',#391,5.3);
#255=CIRCLE('',#392,9.00000000000054);
#256=CIRCLE('',#394,9.00000000000054);
#257=CIRCLE('',#395,5.29999999999999);
#258=CIRCLE('',#404,5.29999999999999);
#259=CIRCLE('',#406,5.);
#260=CIRCLE('',#408,5.);
#261=CIRCLE('',#410,5.3);
#262=EDGE_LOOP('',(#80,#81,#82,#83));
#263=EDGE_LOOP('',(#84,#85,#86,#87));
#264=EDGE_LOOP('',(#88,#89,#90,#91));
#265=EDGE_LOOP('',(#92,#93,#94,#95));
#266=EDGE_LOOP('',(#96,#97,#98,#99));
#267=EDGE_LOOP('',(#100,#101,#102,#103));
#268=EDGE_LOOP('',(#104,#105,#106,#107));
#269=EDGE_LOOP('',(#108,#109,#110,#111));
#270=EDGE_LOOP('',(#112,#113,#114,#115));
#271=EDGE_LOOP('',(#116));
#272=EDGE_LOOP('',(#117,#118));
#273=EDGE_LOOP('',(#119,#120));
#274=EDGE_LOOP('',(#121));
#275=EDGE_LOOP('',(#122,#123,#124,#125));
#276=EDGE_LOOP('',(#126,#127,#128,#129));
#277=EDGE_LOOP('',(#130,#131,#132,#133));
#278=EDGE_LOOP('',(#134,#135,#136,#137));
#279=EDGE_LOOP('',(#138,#139,#140,#141));
#280=EDGE_LOOP('',(#142,#143,#144,#145));
#281=EDGE_LOOP('',(#146,#147,#148,#149));
#282=EDGE_LOOP('',(#150,#151,#152,#153));
#283=EDGE_LOOP('',(#154,#155,#156,#157));
#284=EDGE_LOOP('',(#158));
#285=EDGE_LOOP('',(#159));
#286=EDGE_LOOP('',(#160));
#287=EDGE_LOOP('',(#161));
#288=EDGE_LOOP('',(#162));
#289=EDGE_LOOP('',(#163));
#290=EDGE_LOOP('',(#164));
#291=EDGE_LOOP('',(#165));
#292=EDGE_LOOP('',(#166));
#293=EDGE_LOOP('',(#167));
#294=FACE_BOUND('',#262,.T.);
#295=FACE_BOUND('',#263,.T.);
#296=FACE_BOUND('',#264,.T.);
#297=FACE_BOUND('',#265,.T.);
#298=FACE_BOUND('',#266,.T.);
#299=FACE_BOUND('',#267,.T.);
#300=FACE_BOUND('',#268,.T.);
#301=FACE_BOUND('',#269,.T.);
#302=FACE_BOUND('',#270,.T.);
#303=FACE_BOUND('',#271,.T.);
#304=FACE_BOUND('',#272,.T.);
#305=FACE_BOUND('',#273,.T.);
#306=FACE_BOUND('',#274,.T.);
#307=FACE_BOUND('',#275,.T.);
#308=FACE_BOUND('',#276,.T.);
#309=FACE_BOUND('',#277,.T.);
#310=FACE_BOUND('',#278,.T.);
#311=FACE_BOUND('',#279,.T.);
#312=FACE_BOUND('',#280,.T.);
#313=FACE_BOUND('',#281,.T.);
#314=FACE_BOUND('',#282,.T.);
#315=FACE_BOUND('',#283,.T.);
#316=FACE_BOUND('',#284,.T.);
#317=FACE_BOUND('',#285,.T.);
#318=FACE_BOUND('',#286,.T.);
#319=FACE_BOUND('',#287,.T.);
#320=FACE_BOUND('',#288,.T.);
#321=FACE_BOUND('',#289,.T.);
#322=FACE_BOUND('',#290,.T.);
#323=FACE_BOUND('',#291,.T.);
#324=FACE_BOUND('',#292,.T.);
#325=FACE_BOUND('',#293,.T.);
#326=CYLINDRICAL_SURFACE('',#369,9.5);
#327=CYLINDRICAL_SURFACE('',#377,9.5);
#328=CYLINDRICAL_SURFACE('',#384,9.5);
#329=CYLINDRICAL_SURFACE('',#396,9.);
#330=CYLINDRICAL_SURFACE('',#403,5.29999999999999);
#331=CYLINDRICAL_SURFACE('',#407,5.);
#332=CYLINDRICAL_SURFACE('',#409,5.3);
#333=ADVANCED_FACE('',(#294),#326,.T.);
#334=ADVANCED_FACE('',(#295),#38,.T.);
#335=ADVANCED_FACE('',(#296),#39,.T.);
#336=ADVANCED_FACE('',(#297),#327,.T.);
#337=ADVANCED_FACE('',(#298),#20,.F.);
#338=ADVANCED_FACE('',(#299),#21,.F.);
#339=ADVANCED_FACE('',(#300),#328,.T.);
#340=ADVANCED_FACE('',(#301),#22,.F.);
#341=ADVANCED_FACE('',(#302),#23,.F.);
#342=ADVANCED_FACE('',(#303,#304),#24,.T.);
#343=ADVANCED_FACE('',(#305,#306),#25,.T.);
#344=ADVANCED_FACE('',(#307,#308,#309),#329,.T.);
#345=ADVANCED_FACE('',(#310),#26,.T.);
#346=ADVANCED_FACE('',(#311),#27,.T.);
#347=ADVANCED_FACE('',(#312),#28,.T.);
#348=ADVANCED_FACE('',(#313),#29,.T.);
#349=ADVANCED_FACE('',(#314),#30,.T.);
#350=ADVANCED_FACE('',(#315),#31,.T.);
#351=ADVANCED_FACE('',(#316,#317),#330,.F.);
#352=ADVANCED_FACE('',(#318,#319),#32,.T.);
#353=ADVANCED_FACE('',(#320,#321),#331,.F.);
#354=ADVANCED_FACE('',(#322,#323),#332,.F.);
#355=ADVANCED_FACE('',(#324,#325),#33,.T.);
#356=CLOSED_SHELL('',(#333,#334,#335,#336,#337,#338,#339,#340,#341,#342,
#343,#344,#345,#346,#347,#348,#349,#350,#351,#352,#353,#354,#355));
#357=STYLED_ITEM('',(#358),#365);
#358=PRESENTATION_STYLE_ASSIGNMENT((#359));
#359=SURFACE_STYLE_USAGE(.BOTH.,#360);
#360=SURFACE_SIDE_STYLE('',(#361));
#361=SURFACE_STYLE_FILL_AREA(#362);
#362=FILL_AREA_STYLE('',(#363));
#363=FILL_AREA_STYLE_COLOUR('',#364);
#364=COLOUR_RGB('',0.689999997615814,0.689999997615814,0.689999997615814);
#365=MANIFOLD_SOLID_BREP('LME10UU-AJ',#356);
#366=SHAPE_DEFINITION_REPRESENTATION(#636,#367);
#367=SHAPE_REPRESENTATION('LME10UU-AJ',(#368),#631);
#368=AXIS2_PLACEMENT_3D('',#520,#412,#413);
#369=AXIS2_PLACEMENT_3D('',#521,#414,#415);
#370=AXIS2_PLACEMENT_3D('',#522,#416,#417);
#371=AXIS2_PLACEMENT_3D('',#527,#419,#420);
#372=AXIS2_PLACEMENT_3D('',#530,#422,#423);
#373=AXIS2_PLACEMENT_3D('',#536,#424,#425);
#374=AXIS2_PLACEMENT_3D('',#542,#426,#427);
#375=AXIS2_PLACEMENT_3D('',#543,#428,#429);
#376=AXIS2_PLACEMENT_3D('',#551,#430,#431);
#377=AXIS2_PLACEMENT_3D('',#557,#432,#433);
#378=AXIS2_PLACEMENT_3D('',#560,#435,#436);
#379=AXIS2_PLACEMENT_3D('',#563,#438,#439);
#380=AXIS2_PLACEMENT_3D('',#567,#441,#442);
#381=AXIS2_PLACEMENT_3D('',#571,#444,#445);
#382=AXIS2_PLACEMENT_3D('',#572,#446,#447);
#383=AXIS2_PLACEMENT_3D('',#575,#449,#450);
#384=AXIS2_PLACEMENT_3D('',#578,#452,#453);
#385=AXIS2_PLACEMENT_3D('',#581,#455,#456);
#386=AXIS2_PLACEMENT_3D('',#584,#458,#459);
#387=AXIS2_PLACEMENT_3D('',#589,#462,#463);
#388=AXIS2_PLACEMENT_3D('',#590,#464,#465);
#389=AXIS2_PLACEMENT_3D('',#593,#467,#468);
#390=AXIS2_PLACEMENT_3D('',#596,#470,#471);
#391=AXIS2_PLACEMENT_3D('',#597,#472,#473);
#392=AXIS2_PLACEMENT_3D('',#599,#474,#475);
#393=AXIS2_PLACEMENT_3D('',#600,#476,#477);
#394=AXIS2_PLACEMENT_3D('',#601,#478,#479);
#395=AXIS2_PLACEMENT_3D('',#602,#480,#481);
#396=AXIS2_PLACEMENT_3D('',#604,#482,#483);
#397=AXIS2_PLACEMENT_3D('',#611,#490,#491);
#398=AXIS2_PLACEMENT_3D('',#612,#492,#493);
#399=AXIS2_PLACEMENT_3D('',#613,#494,#495);
#400=AXIS2_PLACEMENT_3D('',#614,#496,#497);
#401=AXIS2_PLACEMENT_3D('',#615,#498,#499);
#402=AXIS2_PLACEMENT_3D('',#616,#500,#501);
#403=AXIS2_PLACEMENT_3D('',#617,#502,#503);
#404=AXIS2_PLACEMENT_3D('',#618,#504,#505);
#405=AXIS2_PLACEMENT_3D('',#620,#506,#507);
#406=AXIS2_PLACEMENT_3D('',#621,#508,#509);
#407=AXIS2_PLACEMENT_3D('',#623,#510,#511);
#408=AXIS2_PLACEMENT_3D('',#624,#512,#513);
#409=AXIS2_PLACEMENT_3D('',#626,#514,#515);
#410=AXIS2_PLACEMENT_3D('',#627,#516,#517);
#411=AXIS2_PLACEMENT_3D('',#629,#518,#519);
#412=DIRECTION('',(0.,0.,1.));
#413=DIRECTION('',(1.,0.,0.));
#414=DIRECTION('',(0.,0.,-1.));
#415=DIRECTION('',(-1.,0.,0.));
#416=DIRECTION('',(0.,0.,1.));
#417=DIRECTION('',(1.,0.,0.));
#418=DIRECTION('',(0.,0.,-1.));
#419=DIRECTION('',(0.,0.,-1.));
#420=DIRECTION('',(-1.,0.,0.));
#421=DIRECTION('',(0.,0.,-1.));
#422=DIRECTION('',(0.,0.,-1.));
#423=DIRECTION('',(-1.,0.,0.));
#424=DIRECTION('',(0.,0.,-1.));
#425=DIRECTION('',(-1.,0.,0.));
#426=DIRECTION('',(0.,0.,-1.));
#427=DIRECTION('',(-1.,0.,0.));
#428=DIRECTION('',(0.,0.,-1.));
#429=DIRECTION('',(-1.,0.,0.));
#430=DIRECTION('',(0.,0.,-1.));
#431=DIRECTION('',(-1.,0.,0.));
#432=DIRECTION('',(0.,0.,-1.));
#433=DIRECTION('',(-1.,0.,0.));
#434=DIRECTION('',(0.,0.,-1.));
#435=DIRECTION('',(0.,0.,-1.));
#436=DIRECTION('',(-1.,0.,0.));
#437=DIRECTION('',(0.,0.,-1.));
#438=DIRECTION('',(0.,0.,1.));
#439=DIRECTION('',(1.,0.,0.));
#440=DIRECTION('',(0.707106781186548,-0.707106781186548,0.));
#441=DIRECTION('',(0.,0.,-1.));
#442=DIRECTION('',(-1.,0.,0.));
#443=DIRECTION('',(-0.707106781186548,0.707106781186548,0.));
#444=DIRECTION('',(0.,0.,-1.));
#445=DIRECTION('',(-1.,0.,0.));
#446=DIRECTION('',(0.,0.,-1.));
#447=DIRECTION('',(-1.,0.,0.));
#448=DIRECTION('',(-0.707106781186548,0.707106781186548,0.));
#449=DIRECTION('',(0.,0.,-1.));
#450=DIRECTION('',(-1.,0.,0.));
#451=DIRECTION('',(0.707106781186548,-0.707106781186548,0.));
#452=DIRECTION('',(0.,0.,-1.));
#453=DIRECTION('',(-1.,0.,0.));
#454=DIRECTION('',(0.,0.,-1.));
#455=DIRECTION('',(0.,0.,-1.));
#456=DIRECTION('',(-1.,0.,0.));
#457=DIRECTION('',(0.,0.,-1.));
#458=DIRECTION('',(0.,0.,1.));
#459=DIRECTION('',(1.,0.,0.));
#460=DIRECTION('',(0.707106781186548,-0.707106781186548,0.));
#461=DIRECTION('',(-0.707106781186548,0.707106781186548,0.));
#462=DIRECTION('',(0.,0.,-1.));
#463=DIRECTION('',(-1.,0.,0.));
#464=DIRECTION('',(0.,0.,-1.));
#465=DIRECTION('',(-1.,0.,0.));
#466=DIRECTION('',(-0.707106781186548,0.707106781186548,0.));
#467=DIRECTION('',(0.,0.,-1.));
#468=DIRECTION('',(-1.,0.,0.));
#469=DIRECTION('',(0.707106781186548,-0.707106781186548,0.));
#470=DIRECTION('',(0.,0.,1.));
#471=DIRECTION('',(1.,0.,0.));
#472=DIRECTION('',(0.,0.,-1.));
#473=DIRECTION('',(-1.,0.,0.));
#474=DIRECTION('',(0.,0.,1.));
#475=DIRECTION('',(1.,0.,0.));
#476=DIRECTION('',(0.,0.,-1.));
#477=DIRECTION('',(-1.,0.,0.));
#478=DIRECTION('',(0.,0.,1.));
#479=DIRECTION('',(1.,0.,0.));
#480=DIRECTION('',(0.,0.,-1.));
#481=DIRECTION('',(-1.,0.,0.));
#482=DIRECTION('',(0.,0.,-1.));
#483=DIRECTION('',(-1.,0.,0.));
#484=DIRECTION('',(0.,0.,-1.));
#485=DIRECTION('',(0.,0.,-1.));
#486=DIRECTION('',(0.,0.,-1.));
#487=DIRECTION('',(0.,0.,-1.));
#488=DIRECTION('',(0.,0.,-1.));
#489=DIRECTION('',(0.,0.,-1.));
#490=DIRECTION('',(-0.707106781186547,-0.707106781186547,0.));
#491=DIRECTION('',(0.707106781186548,-0.707106781186548,0.));
#492=DIRECTION('',(0.707106781186547,0.707106781186547,0.));
#493=DIRECTION('',(-0.707106781186548,0.707106781186548,0.));
#494=DIRECTION('',(-0.707106781186547,-0.707106781186547,0.));
#495=DIRECTION('',(0.707106781186548,-0.707106781186548,0.));
#496=DIRECTION('',(0.707106781186547,0.707106781186547,0.));
#497=DIRECTION('',(-0.707106781186548,0.707106781186548,0.));
#498=DIRECTION('',(0.707106781186547,0.707106781186547,0.));
#499=DIRECTION('',(-0.707106781186548,0.707106781186548,0.));
#500=DIRECTION('',(-0.707106781186547,-0.707106781186547,0.));
#501=DIRECTION('',(0.707106781186548,-0.707106781186548,0.));
#502=DIRECTION('',(0.,0.,-1.));
#503=DIRECTION('',(-1.,0.,0.));
#504=DIRECTION('',(0.,0.,-1.));
#505=DIRECTION('',(-1.,0.,0.));
#506=DIRECTION('',(0.,0.,-1.));
#507=DIRECTION('',(-1.,0.,0.));
#508=DIRECTION('',(0.,0.,-1.));
#509=DIRECTION('',(-1.,0.,0.));
#510=DIRECTION('',(0.,0.,-1.));
#511=DIRECTION('',(-1.,0.,0.));
#512=DIRECTION('',(0.,0.,1.));
#513=DIRECTION('',(1.,0.,0.));
#514=DIRECTION('',(0.,0.,-1.));
#515=DIRECTION('',(-1.,0.,0.));
#516=DIRECTION('',(0.,0.,-1.));
#517=DIRECTION('',(-1.,0.,0.));
#518=DIRECTION('',(0.,0.,1.));
#519=DIRECTION('',(1.,0.,0.));
#520=CARTESIAN_POINT('',(0.,0.,0.));
#521=CARTESIAN_POINT('',(0.,0.,-500.));
#522=CARTESIAN_POINT('',(0.,0.,11.));
#523=CARTESIAN_POINT('',(-6.35465054190609,7.06175732309265,11.));
#524=CARTESIAN_POINT('',(-7.06175732309265,6.35465054190609,11.));
#525=CARTESIAN_POINT('',(-6.35465054190609,7.06175732309265,29.));
#526=CARTESIAN_POINT('',(-6.35465054190609,7.06175732309265,14.));
#527=CARTESIAN_POINT('',(0.,0.,14.));
#528=CARTESIAN_POINT('',(-7.06175732309265,6.35465054190609,14.));
#529=CARTESIAN_POINT('',(-7.06175732309265,6.35465054190609,29.));
#530=CARTESIAN_POINT('',(0.,0.,14.));
#531=CARTESIAN_POINT('',(-6.35465054190609,7.06175732309265,14.));
#532=CARTESIAN_POINT('',(-6.35465054190608,7.06175732309264,14.2642895528375));
#533=CARTESIAN_POINT('',(-6.18745327295695,6.8945600541435,14.5000000000115));
#534=CARTESIAN_POINT('',(-6.00057912297711,6.70768590416366,14.5000000000122));
#535=CARTESIAN_POINT('',(-6.00057912297614,6.70768590416269,14.5));
#536=CARTESIAN_POINT('',(0.,0.,14.5));
#537=CARTESIAN_POINT('',(-6.70768590416269,6.00057912297614,14.5));
#538=CARTESIAN_POINT('',(-6.70768590416269,6.00057912297614,14.5));
#539=CARTESIAN_POINT('',(-6.89455849149563,6.18745171030908,14.5));
#540=CARTESIAN_POINT('',(-7.06175732309658,6.35465054191003,14.2643025253593));
#541=CARTESIAN_POINT('',(-7.06175732309683,6.35465054191028,14.0000000000007));
#542=CARTESIAN_POINT('',(0.,0.,-14.));
#543=CARTESIAN_POINT('',(0.,0.,-14.5));
#544=CARTESIAN_POINT('',(-6.00057912297614,6.70768590416269,-14.5));
#545=CARTESIAN_POINT('',(-6.70768590416269,6.00057912297614,-14.5));
#546=CARTESIAN_POINT('',(-6.00057912297614,6.7076859041627,-14.5));
#547=CARTESIAN_POINT('',(-6.18745171030909,6.89455849149564,-14.5));
#548=CARTESIAN_POINT('',(-6.35465054191004,7.06175732309659,-14.2643025253592));
#549=CARTESIAN_POINT('',(-6.35465054191028,7.06175732309683,-14.0000000000007));
#550=CARTESIAN_POINT('',(-6.35465054190609,7.06175732309265,-14.));
#551=CARTESIAN_POINT('',(0.,0.,-14.));
#552=CARTESIAN_POINT('',(-7.06175732309265,6.35465054190609,-14.));
#553=CARTESIAN_POINT('',(-7.06175732309265,6.35465054190609,-14.));
#554=CARTESIAN_POINT('',(-7.06175732309265,6.35465054190609,-14.2642895528375));
#555=CARTESIAN_POINT('',(-6.89456005414351,6.18745327295696,-14.5000000000115));
#556=CARTESIAN_POINT('',(-6.70768590416366,6.00057912297711,-14.5000000000122));
#557=CARTESIAN_POINT('',(0.,0.,-500.));
#558=CARTESIAN_POINT('',(-6.35465054190609,7.06175732309265,29.));
#559=CARTESIAN_POINT('',(-6.35465054190609,7.06175732309265,-11.));
#560=CARTESIAN_POINT('',(0.,0.,-11.));
#561=CARTESIAN_POINT('',(-7.06175732309265,6.35465054190609,-11.));
#562=CARTESIAN_POINT('',(-7.06175732309265,6.35465054190609,29.));
#563=CARTESIAN_POINT('',(0.,9.5,-9.7));
#564=CARTESIAN_POINT('',(-4.39644660940672,5.10355339059328,-9.7));
#565=CARTESIAN_POINT('',(-6.35465054190609,7.06175732309265,-9.70000000000002));
#566=CARTESIAN_POINT('',(-6.00057912297614,6.70768590416269,-9.69999999999998));
#567=CARTESIAN_POINT('',(0.,0.,-9.7));
#568=CARTESIAN_POINT('',(-7.06175732309265,6.35465054190609,-9.70000000000002));
#569=CARTESIAN_POINT('',(-5.10355339059328,4.39644660940672,-9.7));
#570=CARTESIAN_POINT('',(-6.70768590416269,6.00057912297614,-9.69999999999998));
#571=CARTESIAN_POINT('',(0.,0.,-9.7));
#572=CARTESIAN_POINT('',(0.,9.,-11.));
#573=CARTESIAN_POINT('',(-4.14644660940672,4.85355339059328,-11.));
#574=CARTESIAN_POINT('',(-6.00057912297614,6.70768590416269,-11.));
#575=CARTESIAN_POINT('',(0.,0.,-11.));
#576=CARTESIAN_POINT('',(-6.70768590416269,6.00057912297614,-11.));
#577=CARTESIAN_POINT('',(-4.85355339059328,4.14644660940672,-11.));
#578=CARTESIAN_POINT('',(0.,0.,-500.));
#579=CARTESIAN_POINT('',(-6.35465054190609,7.06175732309265,29.));
#580=CARTESIAN_POINT('',(-6.35465054190609,7.06175732309265,9.7));
#581=CARTESIAN_POINT('',(0.,0.,9.69999999999999));
#582=CARTESIAN_POINT('',(-7.06175732309265,6.35465054190609,9.7));
#583=CARTESIAN_POINT('',(-7.06175732309265,6.35465054190609,29.));
#584=CARTESIAN_POINT('',(0.,19.5,11.));
#585=CARTESIAN_POINT('',(-9.39644660940672,10.1035533905933,11.));
#586=CARTESIAN_POINT('',(-6.00057912297614,6.70768590416269,11.));
#587=CARTESIAN_POINT('',(-10.1035533905933,9.39644660940672,11.));
#588=CARTESIAN_POINT('',(-6.70768590416269,6.00057912297614,11.));
#589=CARTESIAN_POINT('',(0.,0.,11.));
#590=CARTESIAN_POINT('',(0.,9.,9.69999999999999));
#591=CARTESIAN_POINT('',(-4.14644660940672,4.85355339059328,9.69999999999999));
#592=CARTESIAN_POINT('',(-6.00057912297614,6.70768590416269,9.7));
#593=CARTESIAN_POINT('',(0.,0.,9.7));
#594=CARTESIAN_POINT('',(-6.70768590416269,6.00057912297614,9.7));
#595=CARTESIAN_POINT('',(-4.85355339059328,4.14644660940672,9.69999999999999));
#596=CARTESIAN_POINT('',(0.,9.,14.5));
#597=CARTESIAN_POINT('',(0.,0.,14.5));
#598=CARTESIAN_POINT('',(-5.3,0.,14.5));
#599=CARTESIAN_POINT('',(3.79904441238921E-13,-3.79904441238921E-13,14.5));
#600=CARTESIAN_POINT('',(0.,5.,-14.5));
#601=CARTESIAN_POINT('',(0.,0.,-14.5));
#602=CARTESIAN_POINT('',(0.,0.,-14.5));
#603=CARTESIAN_POINT('',(-5.29999999999999,0.,-14.5));
#604=CARTESIAN_POINT('',(0.,0.,-50.));
#605=CARTESIAN_POINT('',(-6.00057912297614,6.70768590416269,29.));
#606=CARTESIAN_POINT('',(-6.70768590416269,6.00057912297614,29.));
#607=CARTESIAN_POINT('',(-6.00057912297614,6.70768590416269,29.));
#608=CARTESIAN_POINT('',(-6.70768590416269,6.00057912297614,29.));
#609=CARTESIAN_POINT('',(-6.70768590416269,6.00057912297614,29.));
#610=CARTESIAN_POINT('',(-6.00057912297614,6.70768590416269,29.));
#611=CARTESIAN_POINT('',(-6.00057912297614,6.70768590416269,29.));
#612=CARTESIAN_POINT('',(-7.06175732309265,6.35465054190609,29.));
#613=CARTESIAN_POINT('',(-6.00057912297614,6.70768590416269,29.));
#614=CARTESIAN_POINT('',(-7.06175732309265,6.35465054190609,29.));
#615=CARTESIAN_POINT('',(-7.06175732309265,6.35465054190609,29.));
#616=CARTESIAN_POINT('',(-6.00057912297614,6.70768590416269,29.));
#617=CARTESIAN_POINT('',(0.,0.,-50.));
#618=CARTESIAN_POINT('',(0.,0.,-13.8));
#619=CARTESIAN_POINT('',(-5.29999999999999,0.,-13.8));
#620=CARTESIAN_POINT('',(0.,4.6,-13.8));
#621=CARTESIAN_POINT('',(0.,0.,-13.8));
#622=CARTESIAN_POINT('',(-5.,0.,-13.8));
#623=CARTESIAN_POINT('',(0.,0.,-500.));
#624=CARTESIAN_POINT('',(0.,0.,13.8));
#625=CARTESIAN_POINT('',(5.,0.,13.8));
#626=CARTESIAN_POINT('',(0.,0.,-50.));
#627=CARTESIAN_POINT('',(0.,0.,13.8));
#628=CARTESIAN_POINT('',(-5.3,0.,13.8));
#629=CARTESIAN_POINT('',(0.,5.3,13.8));
#630=MECHANICAL_DESIGN_GEOMETRIC_PRESENTATION_REPRESENTATION('',(#357),
#631);
#631=(
GEOMETRIC_REPRESENTATION_CONTEXT(3)
GLOBAL_UNCERTAINTY_ASSIGNED_CONTEXT((#632))
GLOBAL_UNIT_ASSIGNED_CONTEXT((#635,#634,#633))
REPRESENTATION_CONTEXT('LME10UU-AJ','TOP_LEVEL_ASSEMBLY_PART')
);
#632=UNCERTAINTY_MEASURE_WITH_UNIT(LENGTH_MEASURE(0.005),#635,
'DISTANCE_ACCURACY_VALUE','Maximum Tolerance applied to model');
#633=(
NAMED_UNIT(*)
SI_UNIT($,.STERADIAN.)
SOLID_ANGLE_UNIT()
);
#634=(
NAMED_UNIT(*)
PLANE_ANGLE_UNIT()
SI_UNIT($,.RADIAN.)
);
#635=(
LENGTH_UNIT()
NAMED_UNIT(*)
SI_UNIT(.MILLI.,.METRE.)
);
#636=PRODUCT_DEFINITION_SHAPE('','',#637);
#637=PRODUCT_DEFINITION('','',#639,#638);
#638=DESIGN_CONTEXT('',#645,'design');
#639=PRODUCT_DEFINITION_FORMATION_WITH_SPECIFIED_SOURCE('','',#641,
 .NOT_KNOWN.);
#640=PRODUCT_RELATED_PRODUCT_CATEGORY('','',(#641));
#641=PRODUCT('LME10UU-AJ','LME10UU-AJ','LME10UU-AJ',(#643));
#642=PRODUCT_CATEGORY('','');
#643=MECHANICAL_CONTEXT('',#645,'mechanical');
#644=APPLICATION_PROTOCOL_DEFINITION('international standard',
'config_control_design',2010,#645);
#645=APPLICATION_CONTEXT(
'configuration controlled 3D designs of mechanical parts and assemblie
s');
ENDSEC;
END-ISO-10303-21;
