ISO-10303-21;
HEADER;
/* Generated by software containing ST-Developer
 * from STEP Tools, Inc. (www.steptools.com) 
 */
/* OPTION: using custom renumber hook */

FILE_DESCRIPTION(
/* description */ ('STEP AP203'),
/* implementation_level */ '2;1');

FILE_NAME(
/* name */ 'LM25UU',
/* time_stamp */ '2022-07-19T10:28:31+02:00',
/* author */ ('License CC BY-ND 4.0'),
/* organization */ ('CADENAS'),
/* preprocessor_version */ 'ST-DEVELOPER v18.102',
/* originating_system */ 'PARTsolutions',
/* authorisation */ '  ');

FILE_SCHEMA (('CONFIG_CONTROL_DESIGN'));
ENDSEC;

DATA;
#10=PROPERTY_DEFINITION_REPRESENTATION(#14,#12);
#11=PROPERTY_DEFINITION_REPRESENTATION(#15,#13);
#12=REPRESENTATION('',(#16),#477);
#13=REPRESENTATION('',(#17),#477);
#14=PROPERTY_DEFINITION('pmi validation property','',#482);
#15=PROPERTY_DEFINITION('pmi validation property','',#482);
#16=VALUE_REPRESENTATION_ITEM('number of annotations',COUNT_MEASURE(0.));
#17=VALUE_REPRESENTATION_ITEM('number of views',COUNT_MEASURE(0.));
#18=SHAPE_REPRESENTATION_RELATIONSHIP('','',#273,#19);
#19=ADVANCED_BREP_SHAPE_REPRESENTATION('',(#271),#477);
#20=CONICAL_SURFACE('',#307,19.,0.558599315343566);
#21=CONICAL_SURFACE('',#308,20.,0.558599315343562);
#22=PLANE('',#281);
#23=PLANE('',#284);
#24=PLANE('',#292);
#25=PLANE('',#296);
#26=PLANE('',#300);
#27=PLANE('',#304);
#28=PLANE('',#309);
#29=PLANE('',#313);
#30=PLANE('',#314);
#31=PLANE('',#318);
#32=ORIENTED_EDGE('',*,*,#76,.T.);
#33=ORIENTED_EDGE('',*,*,#77,.F.);
#34=ORIENTED_EDGE('',*,*,#78,.T.);
#35=ORIENTED_EDGE('',*,*,#79,.F.);
#36=ORIENTED_EDGE('',*,*,#80,.T.);
#37=ORIENTED_EDGE('',*,*,#81,.F.);
#38=ORIENTED_EDGE('',*,*,#82,.T.);
#39=ORIENTED_EDGE('',*,*,#83,.F.);
#40=ORIENTED_EDGE('',*,*,#84,.T.);
#41=ORIENTED_EDGE('',*,*,#85,.F.);
#42=ORIENTED_EDGE('',*,*,#86,.T.);
#43=ORIENTED_EDGE('',*,*,#82,.F.);
#44=ORIENTED_EDGE('',*,*,#87,.T.);
#45=ORIENTED_EDGE('',*,*,#86,.F.);
#46=ORIENTED_EDGE('',*,*,#88,.T.);
#47=ORIENTED_EDGE('',*,*,#87,.F.);
#48=ORIENTED_EDGE('',*,*,#89,.T.);
#49=ORIENTED_EDGE('',*,*,#88,.F.);
#50=ORIENTED_EDGE('',*,*,#90,.T.);
#51=ORIENTED_EDGE('',*,*,#89,.F.);
#52=ORIENTED_EDGE('',*,*,#91,.T.);
#53=ORIENTED_EDGE('',*,*,#90,.F.);
#54=ORIENTED_EDGE('',*,*,#92,.T.);
#55=ORIENTED_EDGE('',*,*,#91,.F.);
#56=ORIENTED_EDGE('',*,*,#93,.T.);
#57=ORIENTED_EDGE('',*,*,#92,.F.);
#58=ORIENTED_EDGE('',*,*,#81,.T.);
#59=ORIENTED_EDGE('',*,*,#93,.F.);
#60=ORIENTED_EDGE('',*,*,#78,.F.);
#61=ORIENTED_EDGE('',*,*,#83,.T.);
#62=ORIENTED_EDGE('',*,*,#80,.F.);
#63=ORIENTED_EDGE('',*,*,#85,.T.);
#64=ORIENTED_EDGE('',*,*,#94,.F.);
#65=ORIENTED_EDGE('',*,*,#79,.T.);
#66=ORIENTED_EDGE('',*,*,#95,.F.);
#67=ORIENTED_EDGE('',*,*,#94,.T.);
#68=ORIENTED_EDGE('',*,*,#76,.F.);
#69=ORIENTED_EDGE('',*,*,#95,.T.);
#70=ORIENTED_EDGE('',*,*,#96,.F.);
#71=ORIENTED_EDGE('',*,*,#77,.T.);
#72=ORIENTED_EDGE('',*,*,#97,.F.);
#73=ORIENTED_EDGE('',*,*,#96,.T.);
#74=ORIENTED_EDGE('',*,*,#84,.F.);
#75=ORIENTED_EDGE('',*,*,#97,.T.);
#76=EDGE_CURVE('',#98,#98,#120,.T.);
#77=EDGE_CURVE('',#99,#99,#121,.T.);
#78=EDGE_CURVE('',#100,#100,#122,.T.);
#79=EDGE_CURVE('',#101,#101,#123,.T.);
#80=EDGE_CURVE('',#102,#102,#124,.T.);
#81=EDGE_CURVE('',#103,#103,#125,.T.);
#82=EDGE_CURVE('',#104,#104,#126,.T.);
#83=EDGE_CURVE('',#105,#105,#127,.T.);
#84=EDGE_CURVE('',#106,#106,#128,.T.);
#85=EDGE_CURVE('',#107,#107,#129,.T.);
#86=EDGE_CURVE('',#108,#108,#130,.T.);
#87=EDGE_CURVE('',#109,#109,#131,.T.);
#88=EDGE_CURVE('',#110,#110,#132,.T.);
#89=EDGE_CURVE('',#111,#111,#133,.T.);
#90=EDGE_CURVE('',#112,#112,#134,.T.);
#91=EDGE_CURVE('',#113,#113,#135,.T.);
#92=EDGE_CURVE('',#114,#114,#136,.T.);
#93=EDGE_CURVE('',#115,#115,#137,.T.);
#94=EDGE_CURVE('',#116,#116,#138,.T.);
#95=EDGE_CURVE('',#117,#117,#139,.T.);
#96=EDGE_CURVE('',#118,#118,#140,.T.);
#97=EDGE_CURVE('',#119,#119,#141,.T.);
#98=VERTEX_POINT('',#412);
#99=VERTEX_POINT('',#414);
#100=VERTEX_POINT('',#417);
#101=VERTEX_POINT('',#419);
#102=VERTEX_POINT('',#422);
#103=VERTEX_POINT('',#424);
#104=VERTEX_POINT('',#427);
#105=VERTEX_POINT('',#429);
#106=VERTEX_POINT('',#432);
#107=VERTEX_POINT('',#434);
#108=VERTEX_POINT('',#437);
#109=VERTEX_POINT('',#440);
#110=VERTEX_POINT('',#443);
#111=VERTEX_POINT('',#446);
#112=VERTEX_POINT('',#449);
#113=VERTEX_POINT('',#452);
#114=VERTEX_POINT('',#455);
#115=VERTEX_POINT('',#458);
#116=VERTEX_POINT('',#464);
#117=VERTEX_POINT('',#467);
#118=VERTEX_POINT('',#471);
#119=VERTEX_POINT('',#474);
#120=CIRCLE('',#276,20.);
#121=CIRCLE('',#277,20.);
#122=CIRCLE('',#279,20.);
#123=CIRCLE('',#280,20.);
#124=CIRCLE('',#282,19.);
#125=CIRCLE('',#283,13.3);
#126=CIRCLE('',#285,13.3);
#127=CIRCLE('',#286,19.);
#128=CIRCLE('',#288,20.);
#129=CIRCLE('',#289,20.);
#130=CIRCLE('',#291,13.3);
#131=CIRCLE('',#293,14.1);
#132=CIRCLE('',#295,14.1);
#133=CIRCLE('',#297,12.5);
#134=CIRCLE('',#299,12.5);
#135=CIRCLE('',#301,14.1);
#136=CIRCLE('',#303,14.1);
#137=CIRCLE('',#305,13.3);
#138=CIRCLE('',#310,19.);
#139=CIRCLE('',#312,19.);
#140=CIRCLE('',#315,19.);
#141=CIRCLE('',#317,19.);
#142=EDGE_LOOP('',(#32));
#143=EDGE_LOOP('',(#33));
#144=EDGE_LOOP('',(#34));
#145=EDGE_LOOP('',(#35));
#146=EDGE_LOOP('',(#36));
#147=EDGE_LOOP('',(#37));
#148=EDGE_LOOP('',(#38));
#149=EDGE_LOOP('',(#39));
#150=EDGE_LOOP('',(#40));
#151=EDGE_LOOP('',(#41));
#152=EDGE_LOOP('',(#42));
#153=EDGE_LOOP('',(#43));
#154=EDGE_LOOP('',(#44));
#155=EDGE_LOOP('',(#45));
#156=EDGE_LOOP('',(#46));
#157=EDGE_LOOP('',(#47));
#158=EDGE_LOOP('',(#48));
#159=EDGE_LOOP('',(#49));
#160=EDGE_LOOP('',(#50));
#161=EDGE_LOOP('',(#51));
#162=EDGE_LOOP('',(#52));
#163=EDGE_LOOP('',(#53));
#164=EDGE_LOOP('',(#54));
#165=EDGE_LOOP('',(#55));
#166=EDGE_LOOP('',(#56));
#167=EDGE_LOOP('',(#57));
#168=EDGE_LOOP('',(#58));
#169=EDGE_LOOP('',(#59));
#170=EDGE_LOOP('',(#60));
#171=EDGE_LOOP('',(#61));
#172=EDGE_LOOP('',(#62));
#173=EDGE_LOOP('',(#63));
#174=EDGE_LOOP('',(#64));
#175=EDGE_LOOP('',(#65));
#176=EDGE_LOOP('',(#66));
#177=EDGE_LOOP('',(#67));
#178=EDGE_LOOP('',(#68));
#179=EDGE_LOOP('',(#69));
#180=EDGE_LOOP('',(#70));
#181=EDGE_LOOP('',(#71));
#182=EDGE_LOOP('',(#72));
#183=EDGE_LOOP('',(#73));
#184=EDGE_LOOP('',(#74));
#185=EDGE_LOOP('',(#75));
#186=FACE_BOUND('',#142,.T.);
#187=FACE_BOUND('',#143,.T.);
#188=FACE_BOUND('',#144,.T.);
#189=FACE_BOUND('',#145,.T.);
#190=FACE_BOUND('',#146,.T.);
#191=FACE_BOUND('',#147,.T.);
#192=FACE_BOUND('',#148,.T.);
#193=FACE_BOUND('',#149,.T.);
#194=FACE_BOUND('',#150,.T.);
#195=FACE_BOUND('',#151,.T.);
#196=FACE_BOUND('',#152,.T.);
#197=FACE_BOUND('',#153,.T.);
#198=FACE_BOUND('',#154,.T.);
#199=FACE_BOUND('',#155,.T.);
#200=FACE_BOUND('',#156,.T.);
#201=FACE_BOUND('',#157,.T.);
#202=FACE_BOUND('',#158,.T.);
#203=FACE_BOUND('',#159,.T.);
#204=FACE_BOUND('',#160,.T.);
#205=FACE_BOUND('',#161,.T.);
#206=FACE_BOUND('',#162,.T.);
#207=FACE_BOUND('',#163,.T.);
#208=FACE_BOUND('',#164,.T.);
#209=FACE_BOUND('',#165,.T.);
#210=FACE_BOUND('',#166,.T.);
#211=FACE_BOUND('',#167,.T.);
#212=FACE_BOUND('',#168,.T.);
#213=FACE_BOUND('',#169,.T.);
#214=FACE_BOUND('',#170,.T.);
#215=FACE_BOUND('',#171,.T.);
#216=FACE_BOUND('',#172,.T.);
#217=FACE_BOUND('',#173,.T.);
#218=FACE_BOUND('',#174,.T.);
#219=FACE_BOUND('',#175,.T.);
#220=FACE_BOUND('',#176,.T.);
#221=FACE_BOUND('',#177,.T.);
#222=FACE_BOUND('',#178,.T.);
#223=FACE_BOUND('',#179,.T.);
#224=FACE_BOUND('',#180,.T.);
#225=FACE_BOUND('',#181,.T.);
#226=FACE_BOUND('',#182,.T.);
#227=FACE_BOUND('',#183,.T.);
#228=FACE_BOUND('',#184,.T.);
#229=FACE_BOUND('',#185,.T.);
#230=CYLINDRICAL_SURFACE('',#275,20.);
#231=CYLINDRICAL_SURFACE('',#278,20.);
#232=CYLINDRICAL_SURFACE('',#287,20.);
#233=CYLINDRICAL_SURFACE('',#290,13.3);
#234=CYLINDRICAL_SURFACE('',#294,14.1);
#235=CYLINDRICAL_SURFACE('',#298,12.5);
#236=CYLINDRICAL_SURFACE('',#302,14.1);
#237=CYLINDRICAL_SURFACE('',#306,13.3);
#238=CYLINDRICAL_SURFACE('',#311,19.);
#239=CYLINDRICAL_SURFACE('',#316,19.);
#240=ADVANCED_FACE('',(#186,#187),#230,.T.);
#241=ADVANCED_FACE('',(#188,#189),#231,.T.);
#242=ADVANCED_FACE('',(#190,#191),#22,.T.);
#243=ADVANCED_FACE('',(#192,#193),#23,.T.);
#244=ADVANCED_FACE('',(#194,#195),#232,.T.);
#245=ADVANCED_FACE('',(#196,#197),#233,.F.);
#246=ADVANCED_FACE('',(#198,#199),#24,.T.);
#247=ADVANCED_FACE('',(#200,#201),#234,.F.);
#248=ADVANCED_FACE('',(#202,#203),#25,.T.);
#249=ADVANCED_FACE('',(#204,#205),#235,.F.);
#250=ADVANCED_FACE('',(#206,#207),#26,.T.);
#251=ADVANCED_FACE('',(#208,#209),#236,.F.);
#252=ADVANCED_FACE('',(#210,#211),#27,.T.);
#253=ADVANCED_FACE('',(#212,#213),#237,.F.);
#254=ADVANCED_FACE('',(#214,#215),#20,.T.);
#255=ADVANCED_FACE('',(#216,#217),#21,.T.);
#256=ADVANCED_FACE('',(#218,#219),#28,.F.);
#257=ADVANCED_FACE('',(#220,#221),#238,.T.);
#258=ADVANCED_FACE('',(#222,#223),#29,.F.);
#259=ADVANCED_FACE('',(#224,#225),#30,.F.);
#260=ADVANCED_FACE('',(#226,#227),#239,.T.);
#261=ADVANCED_FACE('',(#228,#229),#31,.F.);
#262=CLOSED_SHELL('',(#240,#241,#242,#243,#244,#245,#246,#247,#248,#249,
#250,#251,#252,#253,#254,#255,#256,#257,#258,#259,#260,#261));
#263=STYLED_ITEM('',(#264),#271);
#264=PRESENTATION_STYLE_ASSIGNMENT((#265));
#265=SURFACE_STYLE_USAGE(.BOTH.,#266);
#266=SURFACE_SIDE_STYLE('',(#267));
#267=SURFACE_STYLE_FILL_AREA(#268);
#268=FILL_AREA_STYLE('',(#269));
#269=FILL_AREA_STYLE_COLOUR('',#270);
#270=COLOUR_RGB('',0.689999997615814,0.689999997615814,0.689999997615814);
#271=MANIFOLD_SOLID_BREP('LM25UU',#262);
#272=SHAPE_DEFINITION_REPRESENTATION(#482,#273);
#273=SHAPE_REPRESENTATION('LM25UU',(#274),#477);
#274=AXIS2_PLACEMENT_3D('',#409,#319,#320);
#275=AXIS2_PLACEMENT_3D('',#410,#321,#322);
#276=AXIS2_PLACEMENT_3D('',#411,#323,#324);
#277=AXIS2_PLACEMENT_3D('',#413,#325,#326);
#278=AXIS2_PLACEMENT_3D('',#415,#327,#328);
#279=AXIS2_PLACEMENT_3D('',#416,#329,#330);
#280=AXIS2_PLACEMENT_3D('',#418,#331,#332);
#281=AXIS2_PLACEMENT_3D('',#420,#333,#334);
#282=AXIS2_PLACEMENT_3D('',#421,#335,#336);
#283=AXIS2_PLACEMENT_3D('',#423,#337,#338);
#284=AXIS2_PLACEMENT_3D('',#425,#339,#340);
#285=AXIS2_PLACEMENT_3D('',#426,#341,#342);
#286=AXIS2_PLACEMENT_3D('',#428,#343,#344);
#287=AXIS2_PLACEMENT_3D('',#430,#345,#346);
#288=AXIS2_PLACEMENT_3D('',#431,#347,#348);
#289=AXIS2_PLACEMENT_3D('',#433,#349,#350);
#290=AXIS2_PLACEMENT_3D('',#435,#351,#352);
#291=AXIS2_PLACEMENT_3D('',#436,#353,#354);
#292=AXIS2_PLACEMENT_3D('',#438,#355,#356);
#293=AXIS2_PLACEMENT_3D('',#439,#357,#358);
#294=AXIS2_PLACEMENT_3D('',#441,#359,#360);
#295=AXIS2_PLACEMENT_3D('',#442,#361,#362);
#296=AXIS2_PLACEMENT_3D('',#444,#363,#364);
#297=AXIS2_PLACEMENT_3D('',#445,#365,#366);
#298=AXIS2_PLACEMENT_3D('',#447,#367,#368);
#299=AXIS2_PLACEMENT_3D('',#448,#369,#370);
#300=AXIS2_PLACEMENT_3D('',#450,#371,#372);
#301=AXIS2_PLACEMENT_3D('',#451,#373,#374);
#302=AXIS2_PLACEMENT_3D('',#453,#375,#376);
#303=AXIS2_PLACEMENT_3D('',#454,#377,#378);
#304=AXIS2_PLACEMENT_3D('',#456,#379,#380);
#305=AXIS2_PLACEMENT_3D('',#457,#381,#382);
#306=AXIS2_PLACEMENT_3D('',#459,#383,#384);
#307=AXIS2_PLACEMENT_3D('',#460,#385,#386);
#308=AXIS2_PLACEMENT_3D('',#461,#387,#388);
#309=AXIS2_PLACEMENT_3D('',#462,#389,#390);
#310=AXIS2_PLACEMENT_3D('',#463,#391,#392);
#311=AXIS2_PLACEMENT_3D('',#465,#393,#394);
#312=AXIS2_PLACEMENT_3D('',#466,#395,#396);
#313=AXIS2_PLACEMENT_3D('',#468,#397,#398);
#314=AXIS2_PLACEMENT_3D('',#469,#399,#400);
#315=AXIS2_PLACEMENT_3D('',#470,#401,#402);
#316=AXIS2_PLACEMENT_3D('',#472,#403,#404);
#317=AXIS2_PLACEMENT_3D('',#473,#405,#406);
#318=AXIS2_PLACEMENT_3D('',#475,#407,#408);
#319=DIRECTION('',(0.,0.,1.));
#320=DIRECTION('',(1.,0.,0.));
#321=DIRECTION('',(0.,0.,-1.));
#322=DIRECTION('',(-1.,0.,0.));
#323=DIRECTION('',(0.,0.,-1.));
#324=DIRECTION('',(-1.,0.,0.));
#325=DIRECTION('',(0.,0.,-1.));
#326=DIRECTION('',(-1.,0.,0.));
#327=DIRECTION('',(0.,0.,-1.));
#328=DIRECTION('',(-1.,0.,0.));
#329=DIRECTION('',(0.,0.,-1.));
#330=DIRECTION('',(-1.,0.,0.));
#331=DIRECTION('',(0.,0.,-1.));
#332=DIRECTION('',(-1.,0.,0.));
#333=DIRECTION('',(0.,0.,-1.));
#334=DIRECTION('',(-1.,0.,0.));
#335=DIRECTION('',(0.,0.,-1.));
#336=DIRECTION('',(-1.,0.,0.));
#337=DIRECTION('',(0.,0.,-1.));
#338=DIRECTION('',(-1.,0.,0.));
#339=DIRECTION('',(0.,0.,1.));
#340=DIRECTION('',(1.,0.,0.));
#341=DIRECTION('',(0.,0.,-1.));
#342=DIRECTION('',(-1.,0.,0.));
#343=DIRECTION('',(0.,0.,-1.));
#344=DIRECTION('',(-1.,0.,0.));
#345=DIRECTION('',(0.,0.,-1.));
#346=DIRECTION('',(-1.,0.,0.));
#347=DIRECTION('',(0.,0.,-1.));
#348=DIRECTION('',(-1.,0.,0.));
#349=DIRECTION('',(0.,0.,-1.));
#350=DIRECTION('',(-1.,0.,0.));
#351=DIRECTION('',(0.,0.,-1.));
#352=DIRECTION('',(-1.,0.,0.));
#353=DIRECTION('',(0.,0.,-1.));
#354=DIRECTION('',(-1.,0.,0.));
#355=DIRECTION('',(0.,0.,-1.));
#356=DIRECTION('',(-1.,0.,0.));
#357=DIRECTION('',(0.,0.,-1.));
#358=DIRECTION('',(-1.,0.,0.));
#359=DIRECTION('',(0.,0.,-1.));
#360=DIRECTION('',(-1.,0.,0.));
#361=DIRECTION('',(0.,0.,-1.));
#362=DIRECTION('',(-1.,0.,0.));
#363=DIRECTION('',(0.,0.,1.));
#364=DIRECTION('',(1.,0.,0.));
#365=DIRECTION('',(0.,0.,-1.));
#366=DIRECTION('',(-1.,0.,0.));
#367=DIRECTION('',(0.,0.,-1.));
#368=DIRECTION('',(-1.,0.,0.));
#369=DIRECTION('',(0.,0.,-1.));
#370=DIRECTION('',(-1.,0.,0.));
#371=DIRECTION('',(0.,0.,-1.));
#372=DIRECTION('',(-1.,0.,0.));
#373=DIRECTION('',(0.,0.,-1.));
#374=DIRECTION('',(-1.,0.,0.));
#375=DIRECTION('',(0.,0.,-1.));
#376=DIRECTION('',(-1.,0.,0.));
#377=DIRECTION('',(0.,0.,-1.));
#378=DIRECTION('',(-1.,0.,0.));
#379=DIRECTION('',(0.,0.,1.));
#380=DIRECTION('',(1.,0.,0.));
#381=DIRECTION('',(0.,0.,-1.));
#382=DIRECTION('',(-1.,0.,0.));
#383=DIRECTION('',(0.,0.,-1.));
#384=DIRECTION('',(-1.,0.,0.));
#385=DIRECTION('',(0.,0.,-1.));
#386=DIRECTION('',(-1.,0.,0.));
#387=DIRECTION('',(0.,0.,1.));
#388=DIRECTION('',(1.,0.,0.));
#389=DIRECTION('',(0.,0.,1.));
#390=DIRECTION('',(1.,0.,0.));
#391=DIRECTION('',(0.,0.,-1.));
#392=DIRECTION('',(-1.,0.,0.));
#393=DIRECTION('',(0.,0.,-1.));
#394=DIRECTION('',(-1.,0.,0.));
#395=DIRECTION('',(0.,0.,-1.));
#396=DIRECTION('',(-1.,0.,0.));
#397=DIRECTION('',(0.,0.,-1.));
#398=DIRECTION('',(-1.,0.,0.));
#399=DIRECTION('',(0.,0.,1.));
#400=DIRECTION('',(1.,0.,0.));
#401=DIRECTION('',(0.,0.,-1.));
#402=DIRECTION('',(-1.,0.,0.));
#403=DIRECTION('',(0.,0.,-1.));
#404=DIRECTION('',(-1.,0.,0.));
#405=DIRECTION('',(0.,0.,-1.));
#406=DIRECTION('',(-1.,0.,0.));
#407=DIRECTION('',(0.,0.,-1.));
#408=DIRECTION('',(-1.,0.,0.));
#409=CARTESIAN_POINT('',(0.,0.,0.));
#410=CARTESIAN_POINT('',(0.,0.,-100.));
#411=CARTESIAN_POINT('',(0.,0.,18.65));
#412=CARTESIAN_POINT('',(-20.,0.,18.65));
#413=CARTESIAN_POINT('',(0.,0.,-18.65));
#414=CARTESIAN_POINT('',(-20.,0.,-18.65));
#415=CARTESIAN_POINT('',(0.,0.,-100.));
#416=CARTESIAN_POINT('',(0.,0.,27.9));
#417=CARTESIAN_POINT('',(-20.,0.,27.9));
#418=CARTESIAN_POINT('',(0.,0.,20.5));
#419=CARTESIAN_POINT('',(-20.,0.,20.5));
#420=CARTESIAN_POINT('',(0.,13.3,-29.5));
#421=CARTESIAN_POINT('',(0.,0.,-29.5));
#422=CARTESIAN_POINT('',(-19.,0.,-29.5));
#423=CARTESIAN_POINT('',(0.,0.,-29.5));
#424=CARTESIAN_POINT('',(-13.3,0.,-29.5));
#425=CARTESIAN_POINT('',(0.,20.,29.5));
#426=CARTESIAN_POINT('',(0.,0.,29.5));
#427=CARTESIAN_POINT('',(-13.3,0.,29.5));
#428=CARTESIAN_POINT('',(0.,0.,29.5));
#429=CARTESIAN_POINT('',(-19.,0.,29.5));
#430=CARTESIAN_POINT('',(0.,0.,-100.));
#431=CARTESIAN_POINT('',(0.,0.,-20.5));
#432=CARTESIAN_POINT('',(-20.,0.,-20.5));
#433=CARTESIAN_POINT('',(0.,0.,-27.9));
#434=CARTESIAN_POINT('',(-20.,0.,-27.9));
#435=CARTESIAN_POINT('',(0.,0.,-100.));
#436=CARTESIAN_POINT('',(0.,0.,27.9));
#437=CARTESIAN_POINT('',(-13.3,0.,27.9));
#438=CARTESIAN_POINT('',(0.,13.3,27.9));
#439=CARTESIAN_POINT('',(0.,0.,27.9));
#440=CARTESIAN_POINT('',(-14.1,0.,27.9));
#441=CARTESIAN_POINT('',(0.,0.,-100.));
#442=CARTESIAN_POINT('',(0.,0.,27.1));
#443=CARTESIAN_POINT('',(-14.1,0.,27.1));
#444=CARTESIAN_POINT('',(0.,14.1,27.1));
#445=CARTESIAN_POINT('',(0.,0.,27.1));
#446=CARTESIAN_POINT('',(-12.5,0.,27.1));
#447=CARTESIAN_POINT('',(0.,0.,-100.));
#448=CARTESIAN_POINT('',(0.,0.,-27.1));
#449=CARTESIAN_POINT('',(-12.5,0.,-27.1));
#450=CARTESIAN_POINT('',(0.,12.5,-27.1));
#451=CARTESIAN_POINT('',(0.,0.,-27.1));
#452=CARTESIAN_POINT('',(-14.1,0.,-27.1));
#453=CARTESIAN_POINT('',(0.,0.,-100.));
#454=CARTESIAN_POINT('',(0.,0.,-27.9));
#455=CARTESIAN_POINT('',(-14.1,0.,-27.9));
#456=CARTESIAN_POINT('',(0.,14.1,-27.9));
#457=CARTESIAN_POINT('',(0.,0.,-27.9));
#458=CARTESIAN_POINT('',(-13.3,0.,-27.9));
#459=CARTESIAN_POINT('',(0.,0.,-100.));
#460=CARTESIAN_POINT('',(0.,0.,29.5));
#461=CARTESIAN_POINT('',(0.,0.,-27.9));
#462=CARTESIAN_POINT('',(0.,20.,20.5));
#463=CARTESIAN_POINT('',(0.,0.,20.5));
#464=CARTESIAN_POINT('',(-19.,0.,20.5));
#465=CARTESIAN_POINT('',(0.,0.,-100.));
#466=CARTESIAN_POINT('',(0.,0.,18.65));
#467=CARTESIAN_POINT('',(-19.,0.,18.65));
#468=CARTESIAN_POINT('',(0.,19.,18.65));
#469=CARTESIAN_POINT('',(0.,20.,-18.65));
#470=CARTESIAN_POINT('',(0.,0.,-18.65));
#471=CARTESIAN_POINT('',(-19.,0.,-18.65));
#472=CARTESIAN_POINT('',(0.,0.,-100.));
#473=CARTESIAN_POINT('',(0.,0.,-20.5));
#474=CARTESIAN_POINT('',(-19.,0.,-20.5));
#475=CARTESIAN_POINT('',(0.,19.,-20.5));
#476=MECHANICAL_DESIGN_GEOMETRIC_PRESENTATION_REPRESENTATION('',(#263),
#477);
#477=(
GEOMETRIC_REPRESENTATION_CONTEXT(3)
GLOBAL_UNCERTAINTY_ASSIGNED_CONTEXT((#478))
GLOBAL_UNIT_ASSIGNED_CONTEXT((#481,#480,#479))
REPRESENTATION_CONTEXT('LM25UU','TOP_LEVEL_ASSEMBLY_PART')
);
#478=UNCERTAINTY_MEASURE_WITH_UNIT(LENGTH_MEASURE(0.005),#481,
'DISTANCE_ACCURACY_VALUE','Maximum Tolerance applied to model');
#479=(
NAMED_UNIT(*)
SI_UNIT($,.STERADIAN.)
SOLID_ANGLE_UNIT()
);
#480=(
NAMED_UNIT(*)
PLANE_ANGLE_UNIT()
SI_UNIT($,.RADIAN.)
);
#481=(
LENGTH_UNIT()
NAMED_UNIT(*)
SI_UNIT(.MILLI.,.METRE.)
);
#482=PRODUCT_DEFINITION_SHAPE('','',#483);
#483=PRODUCT_DEFINITION('','',#485,#484);
#484=DESIGN_CONTEXT('',#491,'design');
#485=PRODUCT_DEFINITION_FORMATION_WITH_SPECIFIED_SOURCE('','',#487,
 .NOT_KNOWN.);
#486=PRODUCT_RELATED_PRODUCT_CATEGORY('','',(#487));
#487=PRODUCT('LM25UU','LM25UU','LM25UU',(#489));
#488=PRODUCT_CATEGORY('','');
#489=MECHANICAL_CONTEXT('',#491,'mechanical');
#490=APPLICATION_PROTOCOL_DEFINITION('international standard',
'config_control_design',2010,#491);
#491=APPLICATION_CONTEXT(
'configuration controlled 3D designs of mechanical parts and assemblie
s');
ENDSEC;
END-ISO-10303-21;
