ISO-10303-21;
HEADER;
/* Generated by software containing ST-Developer
 * from STEP Tools, Inc. (www.steptools.com) 
 */
/* OPTION: using custom renumber hook */

FILE_DESCRIPTION(
/* description */ ('STEP AP203'),
/* implementation_level */ '2;1');

FILE_NAME(
/* name */ 'LM25UU-AJ',
/* time_stamp */ '2022-07-21T04:00:31+02:00',
/* author */ ('License CC BY-ND 4.0'),
/* organization */ ('CADENAS'),
/* preprocessor_version */ 'ST-DEVELOPER v18.102',
/* originating_system */ 'PARTsolutions',
/* authorisation */ '  ');

FILE_SCHEMA (('CONFIG_CONTROL_DESIGN'));
ENDSEC;

DATA;
#10=PROPERTY_DEFINITION_REPRESENTATION(#14,#12);
#11=PROPERTY_DEFINITION_REPRESENTATION(#15,#13);
#12=REPRESENTATION('',(#16),#711);
#13=REPRESENTATION('',(#17),#711);
#14=PROPERTY_DEFINITION('pmi validation property','',#716);
#15=PROPERTY_DEFINITION('pmi validation property','',#716);
#16=VALUE_REPRESENTATION_ITEM('number of annotations',COUNT_MEASURE(0.));
#17=VALUE_REPRESENTATION_ITEM('number of views',COUNT_MEASURE(0.));
#18=SHAPE_REPRESENTATION_RELATIONSHIP('','',#411,#19);
#19=ADVANCED_BREP_SHAPE_REPRESENTATION('',(#409),#711);
#20=PLANE('',#426);
#21=PLANE('',#428);
#22=PLANE('',#430);
#23=PLANE('',#432);
#24=PLANE('',#434);
#25=PLANE('',#437);
#26=PLANE('',#442);
#27=PLANE('',#446);
#28=PLANE('',#450);
#29=PLANE('',#454);
#30=PLANE('',#458);
#31=PLANE('',#459);
#32=PLANE('',#460);
#33=PLANE('',#461);
#34=PLANE('',#462);
#35=PLANE('',#463);
#36=B_SPLINE_CURVE_WITH_KNOTS('',3,(#617,#618,#619,#620),.UNSPECIFIED.,
 .F.,.F.,(4,4),(2.35944348541009E-7,0.00188775270616776),.UNSPECIFIED.);
#37=B_SPLINE_CURVE_WITH_KNOTS('',3,(#624,#625,#626,#627),.UNSPECIFIED.,
 .F.,.F.,(4,4),(2.35930021702525E-7,0.00188771010520716),.UNSPECIFIED.);
#38=B_SPLINE_CURVE_WITH_KNOTS('',3,(#629,#630,#631,#632),.UNSPECIFIED.,
 .F.,.F.,(4,4),(2.35935077533456E-7,0.00188775269689677),.UNSPECIFIED.);
#39=B_SPLINE_CURVE_WITH_KNOTS('',3,(#634,#635,#636,#637),.UNSPECIFIED.,
 .F.,.F.,(4,4),(2.35938743583159E-7,0.00188771011392906),.UNSPECIFIED.);
#40=CONICAL_SURFACE('',#422,19.,0.558599315343566);
#41=CONICAL_SURFACE('',#424,20.,0.558599315343562);
#42=LINE('',#593,#62);
#43=LINE('',#597,#63);
#44=LINE('',#602,#64);
#45=LINE('',#606,#65);
#46=LINE('',#611,#66);
#47=LINE('',#615,#67);
#48=LINE('',#641,#68);
#49=LINE('',#643,#69);
#50=LINE('',#647,#70);
#51=LINE('',#651,#71);
#52=LINE('',#653,#72);
#53=LINE('',#655,#73);
#54=LINE('',#659,#74);
#55=LINE('',#663,#75);
#56=LINE('',#698,#76);
#57=LINE('',#699,#77);
#58=LINE('',#700,#78);
#59=LINE('',#701,#79);
#60=LINE('',#702,#80);
#61=LINE('',#703,#81);
#62=VECTOR('',#470,1000.);
#63=VECTOR('',#473,1000.);
#64=VECTOR('',#478,1000.);
#65=VECTOR('',#481,1000.);
#66=VECTOR('',#486,1000.);
#67=VECTOR('',#489,1000.);
#68=VECTOR('',#500,1000.);
#69=VECTOR('',#501,1000.);
#70=VECTOR('',#506,1000.);
#71=VECTOR('',#509,1000.);
#72=VECTOR('',#512,1000.);
#73=VECTOR('',#513,1000.);
#74=VECTOR('',#518,1000.);
#75=VECTOR('',#521,1000.);
#76=VECTOR('',#570,1000.);
#77=VECTOR('',#571,1000.);
#78=VECTOR('',#572,1000.);
#79=VECTOR('',#573,1000.);
#80=VECTOR('',#574,1000.);
#81=VECTOR('',#575,1000.);
#82=ORIENTED_EDGE('',*,*,#178,.F.);
#83=ORIENTED_EDGE('',*,*,#179,.F.);
#84=ORIENTED_EDGE('',*,*,#180,.T.);
#85=ORIENTED_EDGE('',*,*,#181,.T.);
#86=ORIENTED_EDGE('',*,*,#182,.F.);
#87=ORIENTED_EDGE('',*,*,#183,.F.);
#88=ORIENTED_EDGE('',*,*,#184,.T.);
#89=ORIENTED_EDGE('',*,*,#185,.T.);
#90=ORIENTED_EDGE('',*,*,#186,.F.);
#91=ORIENTED_EDGE('',*,*,#187,.F.);
#92=ORIENTED_EDGE('',*,*,#188,.T.);
#93=ORIENTED_EDGE('',*,*,#189,.T.);
#94=ORIENTED_EDGE('',*,*,#190,.F.);
#95=ORIENTED_EDGE('',*,*,#191,.T.);
#96=ORIENTED_EDGE('',*,*,#192,.F.);
#97=ORIENTED_EDGE('',*,*,#184,.F.);
#98=ORIENTED_EDGE('',*,*,#193,.F.);
#99=ORIENTED_EDGE('',*,*,#186,.T.);
#100=ORIENTED_EDGE('',*,*,#194,.F.);
#101=ORIENTED_EDGE('',*,*,#195,.F.);
#102=ORIENTED_EDGE('',*,*,#196,.F.);
#103=ORIENTED_EDGE('',*,*,#182,.T.);
#104=ORIENTED_EDGE('',*,*,#197,.F.);
#105=ORIENTED_EDGE('',*,*,#198,.F.);
#106=ORIENTED_EDGE('',*,*,#199,.F.);
#107=ORIENTED_EDGE('',*,*,#200,.T.);
#108=ORIENTED_EDGE('',*,*,#201,.F.);
#109=ORIENTED_EDGE('',*,*,#180,.F.);
#110=ORIENTED_EDGE('',*,*,#202,.F.);
#111=ORIENTED_EDGE('',*,*,#178,.T.);
#112=ORIENTED_EDGE('',*,*,#203,.F.);
#113=ORIENTED_EDGE('',*,*,#204,.F.);
#114=ORIENTED_EDGE('',*,*,#205,.F.);
#115=ORIENTED_EDGE('',*,*,#206,.T.);
#116=ORIENTED_EDGE('',*,*,#207,.F.);
#117=ORIENTED_EDGE('',*,*,#188,.F.);
#118=ORIENTED_EDGE('',*,*,#208,.F.);
#119=ORIENTED_EDGE('',*,*,#195,.T.);
#120=ORIENTED_EDGE('',*,*,#209,.F.);
#121=ORIENTED_EDGE('',*,*,#210,.T.);
#122=ORIENTED_EDGE('',*,*,#191,.F.);
#123=ORIENTED_EDGE('',*,*,#211,.T.);
#124=ORIENTED_EDGE('',*,*,#212,.T.);
#125=ORIENTED_EDGE('',*,*,#210,.F.);
#126=ORIENTED_EDGE('',*,*,#213,.T.);
#127=ORIENTED_EDGE('',*,*,#212,.F.);
#128=ORIENTED_EDGE('',*,*,#214,.T.);
#129=ORIENTED_EDGE('',*,*,#213,.F.);
#130=ORIENTED_EDGE('',*,*,#215,.T.);
#131=ORIENTED_EDGE('',*,*,#214,.F.);
#132=ORIENTED_EDGE('',*,*,#216,.T.);
#133=ORIENTED_EDGE('',*,*,#215,.F.);
#134=ORIENTED_EDGE('',*,*,#217,.T.);
#135=ORIENTED_EDGE('',*,*,#216,.F.);
#136=ORIENTED_EDGE('',*,*,#218,.T.);
#137=ORIENTED_EDGE('',*,*,#217,.F.);
#138=ORIENTED_EDGE('',*,*,#219,.T.);
#139=ORIENTED_EDGE('',*,*,#218,.F.);
#140=ORIENTED_EDGE('',*,*,#209,.T.);
#141=ORIENTED_EDGE('',*,*,#219,.F.);
#142=ORIENTED_EDGE('',*,*,#206,.F.);
#143=ORIENTED_EDGE('',*,*,#220,.T.);
#144=ORIENTED_EDGE('',*,*,#208,.T.);
#145=ORIENTED_EDGE('',*,*,#221,.F.);
#146=ORIENTED_EDGE('',*,*,#200,.F.);
#147=ORIENTED_EDGE('',*,*,#222,.T.);
#148=ORIENTED_EDGE('',*,*,#204,.T.);
#149=ORIENTED_EDGE('',*,*,#223,.F.);
#150=ORIENTED_EDGE('',*,*,#198,.T.);
#151=ORIENTED_EDGE('',*,*,#224,.F.);
#152=ORIENTED_EDGE('',*,*,#211,.F.);
#153=ORIENTED_EDGE('',*,*,#225,.T.);
#154=ORIENTED_EDGE('',*,*,#193,.T.);
#155=ORIENTED_EDGE('',*,*,#220,.F.);
#156=ORIENTED_EDGE('',*,*,#205,.T.);
#157=ORIENTED_EDGE('',*,*,#187,.T.);
#158=ORIENTED_EDGE('',*,*,#194,.T.);
#159=ORIENTED_EDGE('',*,*,#189,.F.);
#160=ORIENTED_EDGE('',*,*,#207,.T.);
#161=ORIENTED_EDGE('',*,*,#221,.T.);
#162=ORIENTED_EDGE('',*,*,#199,.T.);
#163=ORIENTED_EDGE('',*,*,#179,.T.);
#164=ORIENTED_EDGE('',*,*,#202,.T.);
#165=ORIENTED_EDGE('',*,*,#222,.F.);
#166=ORIENTED_EDGE('',*,*,#201,.T.);
#167=ORIENTED_EDGE('',*,*,#223,.T.);
#168=ORIENTED_EDGE('',*,*,#203,.T.);
#169=ORIENTED_EDGE('',*,*,#181,.F.);
#170=ORIENTED_EDGE('',*,*,#192,.T.);
#171=ORIENTED_EDGE('',*,*,#224,.T.);
#172=ORIENTED_EDGE('',*,*,#197,.T.);
#173=ORIENTED_EDGE('',*,*,#185,.F.);
#174=ORIENTED_EDGE('',*,*,#190,.T.);
#175=ORIENTED_EDGE('',*,*,#183,.T.);
#176=ORIENTED_EDGE('',*,*,#196,.T.);
#177=ORIENTED_EDGE('',*,*,#225,.F.);
#178=EDGE_CURVE('',#226,#227,#260,.T.);
#179=EDGE_CURVE('',#228,#226,#42,.T.);
#180=EDGE_CURVE('',#228,#229,#261,.T.);
#181=EDGE_CURVE('',#229,#227,#43,.T.);
#182=EDGE_CURVE('',#230,#231,#262,.T.);
#183=EDGE_CURVE('',#232,#230,#44,.T.);
#184=EDGE_CURVE('',#232,#233,#263,.T.);
#185=EDGE_CURVE('',#233,#231,#45,.T.);
#186=EDGE_CURVE('',#234,#235,#264,.T.);
#187=EDGE_CURVE('',#236,#234,#46,.T.);
#188=EDGE_CURVE('',#236,#237,#265,.T.);
#189=EDGE_CURVE('',#237,#235,#47,.T.);
#190=EDGE_CURVE('',#238,#232,#36,.T.);
#191=EDGE_CURVE('',#238,#239,#266,.T.);
#192=EDGE_CURVE('',#233,#239,#37,.T.);
#193=EDGE_CURVE('',#234,#240,#38,.T.);
#194=EDGE_CURVE('',#241,#235,#39,.T.);
#195=EDGE_CURVE('',#240,#241,#267,.T.);
#196=EDGE_CURVE('',#230,#242,#48,.T.);
#197=EDGE_CURVE('',#243,#231,#49,.T.);
#198=EDGE_CURVE('',#242,#243,#268,.T.);
#199=EDGE_CURVE('',#244,#228,#50,.T.);
#200=EDGE_CURVE('',#244,#245,#269,.T.);
#201=EDGE_CURVE('',#229,#245,#51,.T.);
#202=EDGE_CURVE('',#226,#246,#52,.T.);
#203=EDGE_CURVE('',#247,#227,#53,.T.);
#204=EDGE_CURVE('',#246,#247,#270,.T.);
#205=EDGE_CURVE('',#248,#236,#54,.T.);
#206=EDGE_CURVE('',#248,#249,#271,.T.);
#207=EDGE_CURVE('',#237,#249,#55,.T.);
#208=EDGE_CURVE('',#240,#241,#272,.T.);
#209=EDGE_CURVE('',#250,#250,#273,.T.);
#210=EDGE_CURVE('',#251,#251,#274,.T.);
#211=EDGE_CURVE('',#238,#239,#275,.T.);
#212=EDGE_CURVE('',#252,#252,#276,.T.);
#213=EDGE_CURVE('',#253,#253,#277,.T.);
#214=EDGE_CURVE('',#254,#254,#278,.T.);
#215=EDGE_CURVE('',#255,#255,#279,.T.);
#216=EDGE_CURVE('',#256,#256,#280,.T.);
#217=EDGE_CURVE('',#257,#257,#281,.T.);
#218=EDGE_CURVE('',#258,#258,#282,.T.);
#219=EDGE_CURVE('',#259,#259,#283,.T.);
#220=EDGE_CURVE('',#248,#240,#56,.T.);
#221=EDGE_CURVE('',#249,#241,#57,.T.);
#222=EDGE_CURVE('',#244,#246,#58,.T.);
#223=EDGE_CURVE('',#245,#247,#59,.T.);
#224=EDGE_CURVE('',#239,#243,#60,.T.);
#225=EDGE_CURVE('',#238,#242,#61,.T.);
#226=VERTEX_POINT('',#591);
#227=VERTEX_POINT('',#592);
#228=VERTEX_POINT('',#594);
#229=VERTEX_POINT('',#596);
#230=VERTEX_POINT('',#600);
#231=VERTEX_POINT('',#601);
#232=VERTEX_POINT('',#603);
#233=VERTEX_POINT('',#605);
#234=VERTEX_POINT('',#609);
#235=VERTEX_POINT('',#610);
#236=VERTEX_POINT('',#612);
#237=VERTEX_POINT('',#614);
#238=VERTEX_POINT('',#621);
#239=VERTEX_POINT('',#623);
#240=VERTEX_POINT('',#633);
#241=VERTEX_POINT('',#638);
#242=VERTEX_POINT('',#642);
#243=VERTEX_POINT('',#644);
#244=VERTEX_POINT('',#648);
#245=VERTEX_POINT('',#650);
#246=VERTEX_POINT('',#654);
#247=VERTEX_POINT('',#656);
#248=VERTEX_POINT('',#660);
#249=VERTEX_POINT('',#662);
#250=VERTEX_POINT('',#667);
#251=VERTEX_POINT('',#670);
#252=VERTEX_POINT('',#674);
#253=VERTEX_POINT('',#677);
#254=VERTEX_POINT('',#680);
#255=VERTEX_POINT('',#683);
#256=VERTEX_POINT('',#686);
#257=VERTEX_POINT('',#689);
#258=VERTEX_POINT('',#692);
#259=VERTEX_POINT('',#695);
#260=CIRCLE('',#414,20.);
#261=CIRCLE('',#415,20.);
#262=CIRCLE('',#417,20.);
#263=CIRCLE('',#418,20.);
#264=CIRCLE('',#420,20.);
#265=CIRCLE('',#421,20.);
#266=CIRCLE('',#423,19.);
#267=CIRCLE('',#425,19.);
#268=CIRCLE('',#427,19.);
#269=CIRCLE('',#429,19.);
#270=CIRCLE('',#431,19.);
#271=CIRCLE('',#433,19.);
#272=CIRCLE('',#435,19.0000000000016);
#273=CIRCLE('',#436,13.3);
#274=CIRCLE('',#438,13.3);
#275=CIRCLE('',#439,19.0000000000016);
#276=CIRCLE('',#441,13.3);
#277=CIRCLE('',#443,14.1);
#278=CIRCLE('',#445,14.1);
#279=CIRCLE('',#447,12.5);
#280=CIRCLE('',#449,12.5);
#281=CIRCLE('',#451,14.1);
#282=CIRCLE('',#453,14.1);
#283=CIRCLE('',#455,13.3);
#284=EDGE_LOOP('',(#82,#83,#84,#85));
#285=EDGE_LOOP('',(#86,#87,#88,#89));
#286=EDGE_LOOP('',(#90,#91,#92,#93));
#287=EDGE_LOOP('',(#94,#95,#96,#97));
#288=EDGE_LOOP('',(#98,#99,#100,#101));
#289=EDGE_LOOP('',(#102,#103,#104,#105));
#290=EDGE_LOOP('',(#106,#107,#108,#109));
#291=EDGE_LOOP('',(#110,#111,#112,#113));
#292=EDGE_LOOP('',(#114,#115,#116,#117));
#293=EDGE_LOOP('',(#118,#119));
#294=EDGE_LOOP('',(#120));
#295=EDGE_LOOP('',(#121));
#296=EDGE_LOOP('',(#122,#123));
#297=EDGE_LOOP('',(#124));
#298=EDGE_LOOP('',(#125));
#299=EDGE_LOOP('',(#126));
#300=EDGE_LOOP('',(#127));
#301=EDGE_LOOP('',(#128));
#302=EDGE_LOOP('',(#129));
#303=EDGE_LOOP('',(#130));
#304=EDGE_LOOP('',(#131));
#305=EDGE_LOOP('',(#132));
#306=EDGE_LOOP('',(#133));
#307=EDGE_LOOP('',(#134));
#308=EDGE_LOOP('',(#135));
#309=EDGE_LOOP('',(#136));
#310=EDGE_LOOP('',(#137));
#311=EDGE_LOOP('',(#138));
#312=EDGE_LOOP('',(#139));
#313=EDGE_LOOP('',(#140));
#314=EDGE_LOOP('',(#141));
#315=EDGE_LOOP('',(#142,#143,#144,#145));
#316=EDGE_LOOP('',(#146,#147,#148,#149));
#317=EDGE_LOOP('',(#150,#151,#152,#153));
#318=EDGE_LOOP('',(#154,#155,#156,#157));
#319=EDGE_LOOP('',(#158,#159,#160,#161));
#320=EDGE_LOOP('',(#162,#163,#164,#165));
#321=EDGE_LOOP('',(#166,#167,#168,#169));
#322=EDGE_LOOP('',(#170,#171,#172,#173));
#323=EDGE_LOOP('',(#174,#175,#176,#177));
#324=FACE_BOUND('',#284,.T.);
#325=FACE_BOUND('',#285,.T.);
#326=FACE_BOUND('',#286,.T.);
#327=FACE_BOUND('',#287,.T.);
#328=FACE_BOUND('',#288,.T.);
#329=FACE_BOUND('',#289,.T.);
#330=FACE_BOUND('',#290,.T.);
#331=FACE_BOUND('',#291,.T.);
#332=FACE_BOUND('',#292,.T.);
#333=FACE_BOUND('',#293,.T.);
#334=FACE_BOUND('',#294,.T.);
#335=FACE_BOUND('',#295,.T.);
#336=FACE_BOUND('',#296,.T.);
#337=FACE_BOUND('',#297,.T.);
#338=FACE_BOUND('',#298,.T.);
#339=FACE_BOUND('',#299,.T.);
#340=FACE_BOUND('',#300,.T.);
#341=FACE_BOUND('',#301,.T.);
#342=FACE_BOUND('',#302,.T.);
#343=FACE_BOUND('',#303,.T.);
#344=FACE_BOUND('',#304,.T.);
#345=FACE_BOUND('',#305,.T.);
#346=FACE_BOUND('',#306,.T.);
#347=FACE_BOUND('',#307,.T.);
#348=FACE_BOUND('',#308,.T.);
#349=FACE_BOUND('',#309,.T.);
#350=FACE_BOUND('',#310,.T.);
#351=FACE_BOUND('',#311,.T.);
#352=FACE_BOUND('',#312,.T.);
#353=FACE_BOUND('',#313,.T.);
#354=FACE_BOUND('',#314,.T.);
#355=FACE_BOUND('',#315,.T.);
#356=FACE_BOUND('',#316,.T.);
#357=FACE_BOUND('',#317,.T.);
#358=FACE_BOUND('',#318,.T.);
#359=FACE_BOUND('',#319,.T.);
#360=FACE_BOUND('',#320,.T.);
#361=FACE_BOUND('',#321,.T.);
#362=FACE_BOUND('',#322,.T.);
#363=FACE_BOUND('',#323,.T.);
#364=CYLINDRICAL_SURFACE('',#413,20.);
#365=CYLINDRICAL_SURFACE('',#416,20.);
#366=CYLINDRICAL_SURFACE('',#419,20.);
#367=CYLINDRICAL_SURFACE('',#440,13.3);
#368=CYLINDRICAL_SURFACE('',#444,14.1);
#369=CYLINDRICAL_SURFACE('',#448,12.5);
#370=CYLINDRICAL_SURFACE('',#452,14.1);
#371=CYLINDRICAL_SURFACE('',#456,13.3);
#372=CYLINDRICAL_SURFACE('',#457,19.);
#373=ADVANCED_FACE('',(#324),#364,.T.);
#374=ADVANCED_FACE('',(#325),#365,.T.);
#375=ADVANCED_FACE('',(#326),#366,.T.);
#376=ADVANCED_FACE('',(#327),#40,.T.);
#377=ADVANCED_FACE('',(#328),#41,.T.);
#378=ADVANCED_FACE('',(#329),#20,.F.);
#379=ADVANCED_FACE('',(#330),#21,.F.);
#380=ADVANCED_FACE('',(#331),#22,.F.);
#381=ADVANCED_FACE('',(#332),#23,.F.);
#382=ADVANCED_FACE('',(#333,#334),#24,.T.);
#383=ADVANCED_FACE('',(#335,#336),#25,.T.);
#384=ADVANCED_FACE('',(#337,#338),#367,.F.);
#385=ADVANCED_FACE('',(#339,#340),#26,.T.);
#386=ADVANCED_FACE('',(#341,#342),#368,.F.);
#387=ADVANCED_FACE('',(#343,#344),#27,.T.);
#388=ADVANCED_FACE('',(#345,#346),#369,.F.);
#389=ADVANCED_FACE('',(#347,#348),#28,.T.);
#390=ADVANCED_FACE('',(#349,#350),#370,.F.);
#391=ADVANCED_FACE('',(#351,#352),#29,.T.);
#392=ADVANCED_FACE('',(#353,#354),#371,.F.);
#393=ADVANCED_FACE('',(#355,#356,#357),#372,.T.);
#394=ADVANCED_FACE('',(#358),#30,.T.);
#395=ADVANCED_FACE('',(#359),#31,.T.);
#396=ADVANCED_FACE('',(#360),#32,.T.);
#397=ADVANCED_FACE('',(#361),#33,.T.);
#398=ADVANCED_FACE('',(#362),#34,.T.);
#399=ADVANCED_FACE('',(#363),#35,.T.);
#400=CLOSED_SHELL('',(#373,#374,#375,#376,#377,#378,#379,#380,#381,#382,
#383,#384,#385,#386,#387,#388,#389,#390,#391,#392,#393,#394,#395,#396,#397,
#398,#399));
#401=STYLED_ITEM('',(#402),#409);
#402=PRESENTATION_STYLE_ASSIGNMENT((#403));
#403=SURFACE_STYLE_USAGE(.BOTH.,#404);
#404=SURFACE_SIDE_STYLE('',(#405));
#405=SURFACE_STYLE_FILL_AREA(#406);
#406=FILL_AREA_STYLE('',(#407));
#407=FILL_AREA_STYLE_COLOUR('',#408);
#408=COLOUR_RGB('',0.689999997615814,0.689999997615814,0.689999997615814);
#409=MANIFOLD_SOLID_BREP('LM25UU-AJ',#400);
#410=SHAPE_DEFINITION_REPRESENTATION(#716,#411);
#411=SHAPE_REPRESENTATION('LM25UU-AJ',(#412),#711);
#412=AXIS2_PLACEMENT_3D('',#588,#464,#465);
#413=AXIS2_PLACEMENT_3D('',#589,#466,#467);
#414=AXIS2_PLACEMENT_3D('',#590,#468,#469);
#415=AXIS2_PLACEMENT_3D('',#595,#471,#472);
#416=AXIS2_PLACEMENT_3D('',#598,#474,#475);
#417=AXIS2_PLACEMENT_3D('',#599,#476,#477);
#418=AXIS2_PLACEMENT_3D('',#604,#479,#480);
#419=AXIS2_PLACEMENT_3D('',#607,#482,#483);
#420=AXIS2_PLACEMENT_3D('',#608,#484,#485);
#421=AXIS2_PLACEMENT_3D('',#613,#487,#488);
#422=AXIS2_PLACEMENT_3D('',#616,#490,#491);
#423=AXIS2_PLACEMENT_3D('',#622,#492,#493);
#424=AXIS2_PLACEMENT_3D('',#628,#494,#495);
#425=AXIS2_PLACEMENT_3D('',#639,#496,#497);
#426=AXIS2_PLACEMENT_3D('',#640,#498,#499);
#427=AXIS2_PLACEMENT_3D('',#645,#502,#503);
#428=AXIS2_PLACEMENT_3D('',#646,#504,#505);
#429=AXIS2_PLACEMENT_3D('',#649,#507,#508);
#430=AXIS2_PLACEMENT_3D('',#652,#510,#511);
#431=AXIS2_PLACEMENT_3D('',#657,#514,#515);
#432=AXIS2_PLACEMENT_3D('',#658,#516,#517);
#433=AXIS2_PLACEMENT_3D('',#661,#519,#520);
#434=AXIS2_PLACEMENT_3D('',#664,#522,#523);
#435=AXIS2_PLACEMENT_3D('',#665,#524,#525);
#436=AXIS2_PLACEMENT_3D('',#666,#526,#527);
#437=AXIS2_PLACEMENT_3D('',#668,#528,#529);
#438=AXIS2_PLACEMENT_3D('',#669,#530,#531);
#439=AXIS2_PLACEMENT_3D('',#671,#532,#533);
#440=AXIS2_PLACEMENT_3D('',#672,#534,#535);
#441=AXIS2_PLACEMENT_3D('',#673,#536,#537);
#442=AXIS2_PLACEMENT_3D('',#675,#538,#539);
#443=AXIS2_PLACEMENT_3D('',#676,#540,#541);
#444=AXIS2_PLACEMENT_3D('',#678,#542,#543);
#445=AXIS2_PLACEMENT_3D('',#679,#544,#545);
#446=AXIS2_PLACEMENT_3D('',#681,#546,#547);
#447=AXIS2_PLACEMENT_3D('',#682,#548,#549);
#448=AXIS2_PLACEMENT_3D('',#684,#550,#551);
#449=AXIS2_PLACEMENT_3D('',#685,#552,#553);
#450=AXIS2_PLACEMENT_3D('',#687,#554,#555);
#451=AXIS2_PLACEMENT_3D('',#688,#556,#557);
#452=AXIS2_PLACEMENT_3D('',#690,#558,#559);
#453=AXIS2_PLACEMENT_3D('',#691,#560,#561);
#454=AXIS2_PLACEMENT_3D('',#693,#562,#563);
#455=AXIS2_PLACEMENT_3D('',#694,#564,#565);
#456=AXIS2_PLACEMENT_3D('',#696,#566,#567);
#457=AXIS2_PLACEMENT_3D('',#697,#568,#569);
#458=AXIS2_PLACEMENT_3D('',#704,#576,#577);
#459=AXIS2_PLACEMENT_3D('',#705,#578,#579);
#460=AXIS2_PLACEMENT_3D('',#706,#580,#581);
#461=AXIS2_PLACEMENT_3D('',#707,#582,#583);
#462=AXIS2_PLACEMENT_3D('',#708,#584,#585);
#463=AXIS2_PLACEMENT_3D('',#709,#586,#587);
#464=DIRECTION('',(0.,0.,1.));
#465=DIRECTION('',(1.,0.,0.));
#466=DIRECTION('',(0.,0.,-1.));
#467=DIRECTION('',(-1.,0.,0.));
#468=DIRECTION('',(0.,0.,-1.));
#469=DIRECTION('',(-1.,0.,0.));
#470=DIRECTION('',(0.,0.,-1.));
#471=DIRECTION('',(0.,0.,-1.));
#472=DIRECTION('',(-1.,0.,0.));
#473=DIRECTION('',(0.,0.,-1.));
#474=DIRECTION('',(0.,0.,-1.));
#475=DIRECTION('',(-1.,0.,0.));
#476=DIRECTION('',(0.,0.,-1.));
#477=DIRECTION('',(-1.,0.,0.));
#478=DIRECTION('',(0.,0.,-1.));
#479=DIRECTION('',(0.,0.,-1.));
#480=DIRECTION('',(-1.,0.,0.));
#481=DIRECTION('',(0.,0.,-1.));
#482=DIRECTION('',(0.,0.,-1.));
#483=DIRECTION('',(-1.,0.,0.));
#484=DIRECTION('',(0.,0.,-1.));
#485=DIRECTION('',(-1.,0.,0.));
#486=DIRECTION('',(0.,0.,-1.));
#487=DIRECTION('',(0.,0.,-1.));
#488=DIRECTION('',(-1.,0.,0.));
#489=DIRECTION('',(0.,0.,-1.));
#490=DIRECTION('',(0.,0.,-1.));
#491=DIRECTION('',(-1.,0.,0.));
#492=DIRECTION('',(0.,0.,-1.));
#493=DIRECTION('',(-1.,0.,0.));
#494=DIRECTION('',(0.,0.,1.));
#495=DIRECTION('',(1.,0.,0.));
#496=DIRECTION('',(0.,0.,-1.));
#497=DIRECTION('',(-1.,0.,0.));
#498=DIRECTION('',(0.,0.,1.));
#499=DIRECTION('',(1.,0.,0.));
#500=DIRECTION('',(-0.984807753012208,-0.17364817766693,0.));
#501=DIRECTION('',(0.984807753012208,0.173648177666931,0.));
#502=DIRECTION('',(0.,0.,-1.));
#503=DIRECTION('',(-1.,0.,0.));
#504=DIRECTION('',(0.,0.,-1.));
#505=DIRECTION('',(-1.,0.,0.));
#506=DIRECTION('',(0.984807753012208,0.17364817766693,0.));
#507=DIRECTION('',(0.,0.,-1.));
#508=DIRECTION('',(-1.,0.,0.));
#509=DIRECTION('',(-0.984807753012208,-0.173648177666931,0.));
#510=DIRECTION('',(0.,0.,1.));
#511=DIRECTION('',(1.,0.,0.));
#512=DIRECTION('',(-0.984807753012208,-0.17364817766693,0.));
#513=DIRECTION('',(0.984807753012208,0.173648177666931,0.));
#514=DIRECTION('',(0.,0.,-1.));
#515=DIRECTION('',(-1.,0.,0.));
#516=DIRECTION('',(0.,0.,-1.));
#517=DIRECTION('',(-1.,0.,0.));
#518=DIRECTION('',(0.984807753012208,0.17364817766693,0.));
#519=DIRECTION('',(0.,0.,-1.));
#520=DIRECTION('',(-1.,0.,0.));
#521=DIRECTION('',(-0.984807753012208,-0.173648177666931,0.));
#522=DIRECTION('',(0.,0.,-1.));
#523=DIRECTION('',(-1.,0.,0.));
#524=DIRECTION('',(0.,0.,1.));
#525=DIRECTION('',(1.,0.,0.));
#526=DIRECTION('',(0.,0.,-1.));
#527=DIRECTION('',(-1.,0.,0.));
#528=DIRECTION('',(0.,0.,1.));
#529=DIRECTION('',(1.,0.,0.));
#530=DIRECTION('',(0.,0.,-1.));
#531=DIRECTION('',(-1.,0.,0.));
#532=DIRECTION('',(0.,0.,1.));
#533=DIRECTION('',(1.,0.,0.));
#534=DIRECTION('',(0.,0.,-1.));
#535=DIRECTION('',(-1.,0.,0.));
#536=DIRECTION('',(0.,0.,-1.));
#537=DIRECTION('',(-1.,0.,0.));
#538=DIRECTION('',(0.,0.,-1.));
#539=DIRECTION('',(-1.,0.,0.));
#540=DIRECTION('',(0.,0.,-1.));
#541=DIRECTION('',(-1.,0.,0.));
#542=DIRECTION('',(0.,0.,-1.));
#543=DIRECTION('',(-1.,0.,0.));
#544=DIRECTION('',(0.,0.,-1.));
#545=DIRECTION('',(-1.,0.,0.));
#546=DIRECTION('',(0.,0.,1.));
#547=DIRECTION('',(1.,0.,0.));
#548=DIRECTION('',(0.,0.,-1.));
#549=DIRECTION('',(-1.,0.,0.));
#550=DIRECTION('',(0.,0.,-1.));
#551=DIRECTION('',(-1.,0.,0.));
#552=DIRECTION('',(0.,0.,-1.));
#553=DIRECTION('',(-1.,0.,0.));
#554=DIRECTION('',(0.,0.,-1.));
#555=DIRECTION('',(-1.,0.,0.));
#556=DIRECTION('',(0.,0.,-1.));
#557=DIRECTION('',(-1.,0.,0.));
#558=DIRECTION('',(0.,0.,-1.));
#559=DIRECTION('',(-1.,0.,0.));
#560=DIRECTION('',(0.,0.,-1.));
#561=DIRECTION('',(-1.,0.,0.));
#562=DIRECTION('',(0.,0.,1.));
#563=DIRECTION('',(1.,0.,0.));
#564=DIRECTION('',(0.,0.,-1.));
#565=DIRECTION('',(-1.,0.,0.));
#566=DIRECTION('',(0.,0.,-1.));
#567=DIRECTION('',(-1.,0.,0.));
#568=DIRECTION('',(0.,0.,-1.));
#569=DIRECTION('',(-1.,0.,0.));
#570=DIRECTION('',(0.,0.,-1.));
#571=DIRECTION('',(0.,0.,-1.));
#572=DIRECTION('',(0.,0.,-1.));
#573=DIRECTION('',(0.,0.,-1.));
#574=DIRECTION('',(0.,0.,-1.));
#575=DIRECTION('',(0.,0.,-1.));
#576=DIRECTION('',(-0.17364817766693,0.984807753012208,0.));
#577=DIRECTION('',(-0.984807753012208,-0.17364817766693,0.));
#578=DIRECTION('',(0.173648177666931,-0.984807753012208,0.));
#579=DIRECTION('',(0.984807753012208,0.173648177666931,0.));
#580=DIRECTION('',(-0.17364817766693,0.984807753012208,0.));
#581=DIRECTION('',(-0.984807753012208,-0.17364817766693,0.));
#582=DIRECTION('',(0.173648177666931,-0.984807753012208,0.));
#583=DIRECTION('',(0.984807753012208,0.173648177666931,0.));
#584=DIRECTION('',(0.173648177666931,-0.984807753012208,0.));
#585=DIRECTION('',(0.984807753012208,0.173648177666931,0.));
#586=DIRECTION('',(-0.17364817766693,0.984807753012208,0.));
#587=DIRECTION('',(-0.984807753012208,-0.17364817766693,0.));
#588=CARTESIAN_POINT('',(0.,0.,0.));
#589=CARTESIAN_POINT('',(0.,0.,-100.));
#590=CARTESIAN_POINT('',(0.,0.,-18.65));
#591=CARTESIAN_POINT('',(19.8470510301838,2.46871736034765,-18.65));
#592=CARTESIAN_POINT('',(19.5012526932404,4.43859700743191,-18.65));
#593=CARTESIAN_POINT('',(19.8470510301838,2.46871736034765,29.5));
#594=CARTESIAN_POINT('',(19.8470510301838,2.46871736034765,18.65));
#595=CARTESIAN_POINT('',(0.,0.,18.65));
#596=CARTESIAN_POINT('',(19.5012526932404,4.43859700743191,18.65));
#597=CARTESIAN_POINT('',(19.5012526932404,4.43859700743191,29.5));
#598=CARTESIAN_POINT('',(0.,0.,-100.));
#599=CARTESIAN_POINT('',(0.,0.,20.5));
#600=CARTESIAN_POINT('',(19.8470510301838,2.46871736034765,20.5));
#601=CARTESIAN_POINT('',(19.5012526932404,4.43859700743191,20.5));
#602=CARTESIAN_POINT('',(19.8470510301838,2.46871736034765,29.5));
#603=CARTESIAN_POINT('',(19.8470510301838,2.46871736034765,27.8999999999968));
#604=CARTESIAN_POINT('',(0.,0.,27.9));
#605=CARTESIAN_POINT('',(19.5012526932404,4.43859700743191,27.8999999999968));
#606=CARTESIAN_POINT('',(19.5012526932404,4.43859700743191,29.5));
#607=CARTESIAN_POINT('',(0.,0.,-100.));
#608=CARTESIAN_POINT('',(0.,0.,-27.9));
#609=CARTESIAN_POINT('',(19.8470510301838,2.46871736034765,-27.8999999999968));
#610=CARTESIAN_POINT('',(19.5012526932404,4.43859700743191,-27.8999999999968));
#611=CARTESIAN_POINT('',(19.8470510301838,2.46871736034765,29.5));
#612=CARTESIAN_POINT('',(19.8470510301838,2.46871736034765,-20.5));
#613=CARTESIAN_POINT('',(0.,0.,-20.5));
#614=CARTESIAN_POINT('',(19.5012526932404,4.43859700743191,-20.5));
#615=CARTESIAN_POINT('',(19.5012526932404,4.43859700743191,29.5));
#616=CARTESIAN_POINT('',(0.,0.,29.5));
#617=CARTESIAN_POINT('',(18.8609050811558,2.29483322261767,29.5));
#618=CARTESIAN_POINT('',(19.1896373023071,2.35279758263486,28.9666774097392));
#619=CARTESIAN_POINT('',(19.5183517717995,2.41075881255564,28.4333435382281));
#620=CARTESIAN_POINT('',(19.8470510301852,2.4687173603479,27.8999999999977));
#621=CARTESIAN_POINT('',(18.8609050811558,2.29483322261767,29.5));
#622=CARTESIAN_POINT('',(0.,0.,29.5));
#623=CARTESIAN_POINT('',(18.5151858008542,4.26472680952087,29.5));
#624=CARTESIAN_POINT('',(19.5012526932418,4.43859700743216,27.8999999999977));
#625=CARTESIAN_POINT('',(19.1725788373217,4.38064293877996,28.4333429338895));
#626=CARTESIAN_POINT('',(18.843890669862,4.32268634661719,28.9666767734697));
#627=CARTESIAN_POINT('',(18.5151858008542,4.26472680952087,29.5));
#628=CARTESIAN_POINT('',(0.,0.,-27.9));
#629=CARTESIAN_POINT('',(19.8470510301852,2.4687173603479,-27.8999999999977));
#630=CARTESIAN_POINT('',(19.5183517717995,2.41075881255564,-28.4333435382281));
#631=CARTESIAN_POINT('',(19.1896373023071,2.35279758263486,-28.9666774097392));
#632=CARTESIAN_POINT('',(18.8609050811558,2.29483322261767,-29.5));
#633=CARTESIAN_POINT('',(18.8609050811558,2.29483322261767,-29.5));
#634=CARTESIAN_POINT('',(18.5151858008542,4.26472680952087,-29.5));
#635=CARTESIAN_POINT('',(18.843890669862,4.32268634661719,-28.9666767734697));
#636=CARTESIAN_POINT('',(19.1725788373217,4.38064293877996,-28.4333429338895));
#637=CARTESIAN_POINT('',(19.5012526932418,4.43859700743216,-27.8999999999977));
#638=CARTESIAN_POINT('',(18.5151858008542,4.26472680952087,-29.5));
#639=CARTESIAN_POINT('',(0.,0.,-29.5));
#640=CARTESIAN_POINT('',(0.,20.,20.5));
#641=CARTESIAN_POINT('',(3.5964877169277,-0.396695403490532,20.5));
#642=CARTESIAN_POINT('',(18.8609050811558,2.29483322261767,20.5));
#643=CARTESIAN_POINT('',(3.24919136159386,1.57292010253387,20.5));
#644=CARTESIAN_POINT('',(18.5151858008542,4.26472680952087,20.5));
#645=CARTESIAN_POINT('',(0.,0.,20.5));
#646=CARTESIAN_POINT('',(0.,19.,18.65));
#647=CARTESIAN_POINT('',(3.42547764526487,-0.426849093097578,18.65));
#648=CARTESIAN_POINT('',(18.8609050811558,2.29483322261767,18.65));
#649=CARTESIAN_POINT('',(0.,0.,18.65));
#650=CARTESIAN_POINT('',(18.5151858008542,4.26472680952087,18.65));
#651=CARTESIAN_POINT('',(3.07818128993102,1.54276641292682,18.65));
#652=CARTESIAN_POINT('',(0.,20.,-18.65));
#653=CARTESIAN_POINT('',(3.5964877169277,-0.396695403490532,-18.65));
#654=CARTESIAN_POINT('',(18.8609050811558,2.29483322261767,-18.65));
#655=CARTESIAN_POINT('',(3.24919136159386,1.57292010253387,-18.65));
#656=CARTESIAN_POINT('',(18.5151858008542,4.26472680952087,-18.65));
#657=CARTESIAN_POINT('',(0.,0.,-18.65));
#658=CARTESIAN_POINT('',(0.,19.,-20.5));
#659=CARTESIAN_POINT('',(3.42547764526487,-0.426849093097578,-20.5));
#660=CARTESIAN_POINT('',(18.8609050811558,2.29483322261767,-20.5));
#661=CARTESIAN_POINT('',(0.,0.,-20.5));
#662=CARTESIAN_POINT('',(18.5151858008542,4.26472680952087,-20.5));
#663=CARTESIAN_POINT('',(3.07818128993102,1.54276641292682,-20.5));
#664=CARTESIAN_POINT('',(0.,13.3,-29.5));
#665=CARTESIAN_POINT('',(-1.62023172656234E-12,-2.7451999007333E-13,-29.5));
#666=CARTESIAN_POINT('',(0.,0.,-29.5));
#667=CARTESIAN_POINT('',(-13.3,0.,-29.5));
#668=CARTESIAN_POINT('',(0.,20.,29.5));
#669=CARTESIAN_POINT('',(0.,0.,29.5));
#670=CARTESIAN_POINT('',(-13.3,0.,29.5));
#671=CARTESIAN_POINT('',(-1.62023172656234E-12,-2.7451999007333E-13,29.5));
#672=CARTESIAN_POINT('',(0.,0.,-100.));
#673=CARTESIAN_POINT('',(0.,0.,27.9));
#674=CARTESIAN_POINT('',(-13.3,0.,27.9));
#675=CARTESIAN_POINT('',(0.,13.3,27.9));
#676=CARTESIAN_POINT('',(0.,0.,27.9));
#677=CARTESIAN_POINT('',(-14.1,0.,27.9));
#678=CARTESIAN_POINT('',(0.,0.,-100.));
#679=CARTESIAN_POINT('',(0.,0.,27.1));
#680=CARTESIAN_POINT('',(-14.1,0.,27.1));
#681=CARTESIAN_POINT('',(0.,14.1,27.1));
#682=CARTESIAN_POINT('',(0.,0.,27.1));
#683=CARTESIAN_POINT('',(-12.5,0.,27.1));
#684=CARTESIAN_POINT('',(0.,0.,-100.));
#685=CARTESIAN_POINT('',(0.,0.,-27.1));
#686=CARTESIAN_POINT('',(-12.5,0.,-27.1));
#687=CARTESIAN_POINT('',(0.,12.5,-27.1));
#688=CARTESIAN_POINT('',(0.,0.,-27.1));
#689=CARTESIAN_POINT('',(-14.1,0.,-27.1));
#690=CARTESIAN_POINT('',(0.,0.,-100.));
#691=CARTESIAN_POINT('',(0.,0.,-27.9));
#692=CARTESIAN_POINT('',(-14.1,0.,-27.9));
#693=CARTESIAN_POINT('',(0.,14.1,-27.9));
#694=CARTESIAN_POINT('',(0.,0.,-27.9));
#695=CARTESIAN_POINT('',(-13.3,0.,-27.9));
#696=CARTESIAN_POINT('',(0.,0.,-100.));
#697=CARTESIAN_POINT('',(0.,0.,-100.));
#698=CARTESIAN_POINT('',(18.8609050811558,2.29483322261767,29.5));
#699=CARTESIAN_POINT('',(18.5151858008542,4.26472680952087,29.5));
#700=CARTESIAN_POINT('',(18.8609050811558,2.29483322261767,29.5));
#701=CARTESIAN_POINT('',(18.5151858008542,4.26472680952087,29.5));
#702=CARTESIAN_POINT('',(18.5151858008542,4.26472680952087,29.5));
#703=CARTESIAN_POINT('',(18.8609050811558,2.29483322261767,29.5));
#704=CARTESIAN_POINT('',(18.8609050811558,2.29483322261767,29.5));
#705=CARTESIAN_POINT('',(19.5012526932404,4.43859700743191,29.5));
#706=CARTESIAN_POINT('',(18.8609050811558,2.29483322261767,29.5));
#707=CARTESIAN_POINT('',(19.5012526932404,4.43859700743191,29.5));
#708=CARTESIAN_POINT('',(19.5012526932404,4.43859700743191,29.5));
#709=CARTESIAN_POINT('',(18.8609050811558,2.29483322261767,29.5));
#710=MECHANICAL_DESIGN_GEOMETRIC_PRESENTATION_REPRESENTATION('',(#401),
#711);
#711=(
GEOMETRIC_REPRESENTATION_CONTEXT(3)
GLOBAL_UNCERTAINTY_ASSIGNED_CONTEXT((#712))
GLOBAL_UNIT_ASSIGNED_CONTEXT((#715,#714,#713))
REPRESENTATION_CONTEXT('LM25UU-AJ','TOP_LEVEL_ASSEMBLY_PART')
);
#712=UNCERTAINTY_MEASURE_WITH_UNIT(LENGTH_MEASURE(0.005),#715,
'DISTANCE_ACCURACY_VALUE','Maximum Tolerance applied to model');
#713=(
NAMED_UNIT(*)
SI_UNIT($,.STERADIAN.)
SOLID_ANGLE_UNIT()
);
#714=(
NAMED_UNIT(*)
PLANE_ANGLE_UNIT()
SI_UNIT($,.RADIAN.)
);
#715=(
LENGTH_UNIT()
NAMED_UNIT(*)
SI_UNIT(.MILLI.,.METRE.)
);
#716=PRODUCT_DEFINITION_SHAPE('','',#717);
#717=PRODUCT_DEFINITION('','',#719,#718);
#718=DESIGN_CONTEXT('',#725,'design');
#719=PRODUCT_DEFINITION_FORMATION_WITH_SPECIFIED_SOURCE('','',#721,
 .NOT_KNOWN.);
#720=PRODUCT_RELATED_PRODUCT_CATEGORY('','',(#721));
#721=PRODUCT('LM25UU-AJ','LM25UU-AJ','LM25UU-AJ',(#723));
#722=PRODUCT_CATEGORY('','');
#723=MECHANICAL_CONTEXT('',#725,'mechanical');
#724=APPLICATION_PROTOCOL_DEFINITION('international standard',
'config_control_design',2010,#725);
#725=APPLICATION_CONTEXT(
'configuration controlled 3D designs of mechanical parts and assemblie
s');
ENDSEC;
END-ISO-10303-21;
